Oops, an error
Loading. Please wait.

Lazy Eye Bass Tab

version 2
version 2

Whole song

Interactive

37,087 views 27 this week
3 commentsread comments
1 2 3 4 5
excellent!
x 25
add to favorites
launch autoscroll
font size
0
reset
guitar tuner
Tab Pro tools
  • play this tab
  • loop segment
  • change instrument
  • show fretboard
  • metronome
×
Best way to learn
"Lazy Eye"
Autoscroll
slow
fast
+/-
esc
set tempo
stop
Contributor
Band - Silversun Pickups
Song - Lazy Eye
Album - Carnavas
Track - 7
Bassist - Nikki Monninger

Edit: After seeing these guys live last week, I noticed Nikki plays something in the 
that I thought was played by the keyboards, so I've altered that

Intro
G---------------------------------|
D---------------------------------|
A-4-4-4-4-4-4-4-4-6-6-6-6-6-6-6-6-|
E---------------------------------| x1

G---------------------------------|
D---------------------------------|
A---------------------------------|
E-0-0-0-0-0-0-0-0-7-7-7-0---0-0-0-| x3

G---------------------------------|
D---------------------------------|
A---------------------------------|
E-0-0-0-0-0-0-0-0-7-7---0---0-0-0-| x1

Verse
G---------------------------------|
D---------------------------------|
A---------------------------------|
E-0-0-0-0-0-0-0-0/7-7-7-0---0-0-0-| x2

G---------------------------------|
D---------------------------------|
A-4-4-4-4-4-4-4-4-6-6-6-6-6-6-6-6-|
E---------------------------------| x1

G---------------------------------|
D---------------------------------|
A---------------------------------|
E-0-0-0-0-0-0-0-0/7-7-7-0---0-0-0-| x2

Repeat Verse

Guitar Bridge Bit 1
G---------------------------------|
D---------------------------------|
A---------------------------------|
E-0-0-0-0-0-0-0-0/7-7-7-0---0-0-0-| x2

Verse (Slightly different)
G---------------------------------|
D---------------------------------|
A---------------------------------|
E-0-0-0-0-0-0-0-0/7-7-7-0---0-0-0-| x2

G---------------------------------|
D---------------------------------|
A-4-4-4-4-4-4-4-4-6-6-6-6-6-6-6-6-|
E---------------------------------| x1

G---------------------------------|
D---------------------------------|
A---------------------------------|
E-0-0-0-0-0-0-0-0/7-7-7-0---0-0-0-| x3

G---------------------------------|
D---------------------------------|
A-4-4-4-4-4-4-4-4-2-2-2-2-2-2-2-2-|
E---------------------------------| x1

Guitar Bridge Bit 2
G---------------------------------|
D---------------------------------|
A---------------------------------|
E-0-0-0-0-0-0-0-0/7-7-7-0---0-0-0-| x4

Verse
G---------------------------------|
D---------------------------------|
A-4-4-4-4-4-4-4-4-2-2-2-2-2-2-2-2-|
E---------------------------------| x1

G---------------------------------|
D---------------------------------|
A---------------------------------|
E-0-0-0-0-0-0-0-0/7-7-7-0---0-0-0-| x2

G---------------------------------|
D---------------------------------|
A-4-4-4-4-4-4-4-4-2-2-2-2-2-2-2-2-|
E---------------------------------| x1

Guitar Bridge Bit 3
G---------------------------------|
D---------------------------------|
A---------------------------------|
E-0-0-0-0-0-0-0-0/7-7-7-0---0-0-0-| x4

G---------------------------------|
D---------------------------------|
A-4-4-4-4-4-4-4-4-6-----6---6-6-6-|
E-------------------6-------------| x1

G---------------------------------|
D---------------------------------|
A---------------------------------|
E-0-0-0-0-0-0-0-0/7-7-7-0---0-0-0-| x2

G---------------------------------|
D---------------------------------|
A-4-4-4-4-4-4-4-4-2-2-2-2-2-2-2-2-|
E---------------------------------| x1

Chorus
G-------------------------------------|
D-------------------------------------|
A-------------------------------------|
E-00-0-12--00-0-12--00-0-12--00-0-12--| x4

G---------------------------------|
D---------------------------------|
A-4-4-4-4-4-4-4-4-2-2-2-2-2-2-2-2-|
E---------------------------------| x1

"Moon, Sun and the Sky..."
G---------------------------------|
D---------------------------------|
A---------------------------------|
E-0-0-0-0-0-0-0-0/7-7-7-0---0-0-0-| x8

G---------------------------------|
D---------------------------------|
A-4-4-4-4-4-4-4-4-6-6-6-6-6-6-6-6-|
E---------------------------------| x1

Solo
G---------------------------------|
D---------------------------------|
A---------------------------------|
E-0-0-0-0-0-0-0-0/7-7-7-0---0-0-0-| x4

G---------------------------------|
D---------------------------------|
A-4-4-4-4-4-4-4-4-6-6-6-6-6-6-6-6-|
E---------------------------------| x1

G---------------------------------|
D---------------------------------|
A---------------------------------|
E-0-0-0-0-0-0-0-0/7-7-7-0---0-0-0-| x4

G----11/13/11-9----9------11/13/11-9----9--|
D-14------------11-----14------------11----|
A------------------------------------------|
E------------------------------------------| x1

G---------------------------------|
D---------------------------------|
A---------------------------------|
E-0-0-0-0-0-0-0-0/7-7-7-0---0-0-0-| x4

G----11/13/11-9----9------11/13/11-9----9--|
D-14------------11-----14------------11----|
A------------------------------------------|
E------------------------------------------| x1

G---------------------------------|
D---------------------------------|
A---------------------------------|
E-0-0-0-0-0-0-0-0/7-7-7-0---0-0-0-| x4

G----11/13/11-9----9------11/13/11-9/16-11-|
D-14------------11-----14------------------|
A------------------------------------------|
E------------------------------------------| x1
Hold that last 11 while playing the open E's in the next bar

G---------------------------------|
D---------------------------------|
A---------------------------------|
E-0-0-0-0-0-0-0-0/7-7-7-0---0-0-0-| x4

G---------------------------------|
D---------------------------------|
A-4-4-4---4-4-4---6-6-6---6-6-6---|
E---------------------------------| x1

G---------------------------------|
D---------------------------------|
A---------------------------------|
E-0-0-0-0-0-0-0-0/7-7-7-0---0-0-0-| x4

Outro
G---------------------------------|
D---------------------------------|
A---------------------------------|
E-0-0-0-0-0-0-0-0/7-7-7-0---0-0-0-| Repeat

End with
G---------------------------------|
D---------------------------------|
A---------------------------------|
E-0~~~----------------------------|
comments
print report bad tab
3 comments total.
0 reply
djbc wrote on April 25 2007, 03:05 am

Nice work, sounds good. Thanks

0 reply
DrBobert wrote on May 5 2007, 02:32 pm

Like it a lot. Cheers.

0 reply
thedude97 wrote on March 18 2008, 01:23 am

Is that high part at the end really bass?

I want to post or [tab]
guest
You may want to rate the tab now too:
select rating
Please do not post tabs as comments. Select "correction" instead!