Oops, an error
Loading. Please wait.

Lazy Eye Tab

version 2
version 2

Whole song

Interactive

24,560 views 30 this week
3 commentsread comments
1 2 3 4 5
x 6
add to favorites
launch autoscroll
font size
0
reset
how to read this tab
guitar tuner
backing track
0:00
0:00
×
Best way to learn
"Lazy Eye"
Autoscroll
slow
fast
+/-
esc
set tempo
stop
Author
Difficulty
intermediate
submited by: pPebble_rebel
email: pebble_rebel@hotmail.com
tabber: Alex D

Lazy Eye by Silversun Pickups
Standard tuning

Slightly easier version that the previous one. And one the guitaris actually plays
here http://www.youtube.com/watch?v=Ac5tP4jkkT4&eurl=.


Riff 1
e]-----------------------------------------------------------------|   X2
b]-----------------------------------------------------------------|
g]-----------------------------------------------------------------|
d]-----------------------------------------------------------------|
a]11-11-11-11-11-11-11-11-9-9-9-9h11-11-11-bend up and down quickly|
e]0--0--0--0---0--0--0-0--0-0-0-0--0--0--0-------------------------|

Riff 2
e]-----------------------------------------------------------------|   X2
b]-----------------------------------------------------------------|
g]-----------------------------------------------------------------|
d]-----------------------------------------------------------------|
a]11-11-11-11-11-11-11-11\9\7/9/11-11-11-bend up and down quickly--|
e]0--0--0--0---0--0--0--0-0--0-0-0--0--0---------------------------|

Drums and bass start

riff 1 x1

Riff 3
e]--------------------------------------|   X3
b]--------------------------------------|
g]--------------------------------------|
d]------------------------9/11\9--------|
a]11-11-11-11-11-11-11-11--------11-----|
e]-0--0--0--0--0--0--0--0--------0------|

riff 1 x2

Chord thing
  Cmin                  Bmaj
e]-9--9--9--9--9--9--9---7-7-7-7-7-7-7-7-------------|
b]-9--9--9--9--9--9--9---7-7-7-7-7-7-7-7-------------|
g]-9--9--9--9--9--9--9---8-8-8-8-8-8-8-8-------------|
d]-10-10-10-10-10-10-10--9-9-9-9-9-9-9-9-------------|
a]-10-10-10-10-10-10-10--9-9-9-9-9-9-9-9-11-11-11-11-|
e]-9--9--9--9--9--9--9---7-7-7-7-7-7-7-7-0---0--0--0-|

Riff 3 x1
Riff 2 x2
Chord thing

Lead line
e]------------------------------------------------|
b]------------------------------------------------| X1
g]------------------------------------------------|
d]------------------9-------9--------9------------|
a]--14-12-11----9h11-11-9h11--11-9h11-11-9-77-6-2-|
e]------------------------------------------------|


{0:41 - 0:47} BRIDGE
e]-------------------------------------------------------------|  x1
b]-------------------------------------------------------------|
g]9-9-9-9-x-x-9-9/x-x-11-x-11/-13--13-xx--11-bend up and down--|
d]x-x-x-x-x-x-x-x-x-x----x------x---x-xx--x--------------------|
a]7-7-7-7-x-x-7-7/x-x-9--x-9-/-11--11-xx--13 bend up and down--|
e]-------------------------------------------------------------|

plus

e]------------------------------------|
b]------------------------------------|
g]-9----------/11--------/13----------|
d]-x-----------x----------x-----------|
a]-7----------/9---------/11----------|
e]------------------------------------|

Riff 2 x1
Riff 3 x1
Chord thing x1
then


e]----------------------------------|
b]----------------------------------|
g]--10------------------------------|
d]--10------------------------------|
a]-------------------------14-12-11-|
e]----------------------------------|

riff 3 x2
chord thing x1
bridge x2

e]-----------------------------------|
b]-----------------------------------|
g]-----------------------------------|
d]---------------------9/11\9--------|
a]-------------7--------------11-----|
e]---9-------7----------------(0)----|

riff 3 x1

e]----------------|
b]----------------|
g]----------------|
d]----------------|
a]-------------7--|
e]---9-------7----|

solo lead thing x1
riff 2 x1
Cmin Bmaj Emin--> x799997  :---9---9

listen for struming
e]--7-7-7....|
b]--9-9-9....|
g]--9-9-9....|
d]--9-9-9....|
a]--7-7-7....|
e]-------....|

Cmin Bmaj

riff 1 x2

then it gets a bit weirder
SOLO Noodling
e]----------------------------|
b]-----------------12 etc-----|
g]---9----11/--13-------------|
d]----------------------------|
a]----------------------------|
e]----------------------------|

lots of slow sliding around the Cmin harmonic scale up beyond the 9th fret on top 3
sometimes notes need to be hit several times and vibratoed. mostly effects pedals and feed
whir beyond here. until slong slowly is found back on.....

riff 1 x4
riff 3 x3
riff 2 x1
riff 1 x2
riff 3 x3
riff 2 x1
and end in a blaze of glorious feedback.

The first version by elo has some suggestions for the solo. BEST OF LUCK! Some bits are
in theright order, but one you get the bits clear in your head you can work out what
they go.
Suggest correction
comments
print report bad tab
3 comments total.
0 reply
witmachine 958 Feb 02, 2007 08:49 PM

Good tab! I'll rate yours if you rate mine .. haha

0 reply
FinderofNemo 337 Sep 23, 2007 12:29 PM

That first chord in the "chord thing" is wrong

0 reply
HiddenDagger 10 Oct 06, 2007 07:57 PM

great tab, awsome song

guest
You may want to rate the tab now too:
select rating
Wanna post a correction for this tab? Suggest correction