Oops, an error
Loading. Please wait.

Little Lovers So Polite Tab

version 2
version 2

Whole song

Interactive

29,834 views 18 this week
4 commentsread comments
1 2 3 4 5
excellent!
x 12
add to favorites
launch autoscroll
font size
0
reset
how to read this tab
guitar tuner
Tab Pro tools
  • play this tab
  • loop segment
  • change instrument
  • show fretboard
  • metronome
×
Best way to learn
"Little Lovers So Polite"
Autoscroll
slow
fast
+/-
esc
set tempo
stop
Little Lover's So Polite
Silversun Pickups
Carnavas 2006

As seen played live

DADGBe Tuning

D: 000xxx	E: 222xxx	F#: 444xxx

G: 555xxx	A: 777xxx	B: 999xxx

Riff 1 (played twice in intro):

   1 + 2 + 3 + 4 + 1 + 2 + 3 + 4 + 1 + 2 + 3 + 4 + 1 + 2 + 3 + 4 +
e|-----------------------------------------------------------------|
B|-5-5-3-3-2-2-0-0-2-2-0-0-2-2-3-3-5-5-3-3-2-2-0-0-2-2-0-0-2h3-2-3-|
G|-0-0-0-0-0-0-0-0-0-0-0-0-0-0-0-0-2-2-2-2-2-2-2-2-2-2-2-2-2-2-2-2-|
D|-----------------------------------------------------------------|
A|-----------------------------------------------------------------|
D|-----------------------------------------------------------------|

G
So much for the light show
D
pissing on while pissing off
G
sucking in a smokescreen
D
selling of a loose knit dream

Riff 1 x2

G
folding up the skyline
D
agreeing on a steep decline
G
cant control this airplane
D
being caught is just the same
G
headed for a lowlife
D
little lover’s so polite
G
waking up the core needs
G
with smelling salts and faulty means

Riff 1
did the bones collide
Riff 1
who let the bones collide
Riff 1			 Riff 1
why did the bones collide

nikki:
B      A     D   E
It’s always the same way for me
B      A    D  E	F#
Ending in the same way

G
so much for the showdown
D
keeping up while keeping off
G
choking on the cold feet
D
rolling up the plastic sleeves
G
can't control the slow ride
D
little lover's so polite
G			   D
turning off the low light

			Riff 1
tell me did the bones collide
the bones collide
		Riff 1
the bones collide
			Riff 1
little lover’s so polite
so polite
	Riff 1
so polite
turning off the low light

nikki:
B      A     D   E
It’s always the same way for me
B	A	 D   E
blue turns soft with time
B       A	D  E
broke remains, an everyday disguise
B	A	E
ending in the same way. . .the same way

[solo] 3:22

   1 + 2 + 3 + 4 + 1 + 2 + 3 + 4 + 1 + 2 + 3 + 4 + 1 + 2 + 3 + 4 +
e|-----------------------------------------------------------------|
B|-----------------------------------------------------------------|
G|-----------------------------------------------------------------|
D|-------------------------9~------7------------47-4----47-4-2-4-2-|
A|-2/5-5-----0/5-7~----0/7-----------------------------------------|
D|-----------------------------------------------------------------|

e|-----------------------------------------------------------------|
B|-----------------------------------------------------------------|
G|-----------------------------------------------------------------|
D|-------------------------9-------7------------47-4-----7/9-7-9---|
A|-2/5-5-----0/5-7~----0/7-----------------------------------------|
D|-----------------------------------------------------------------|

e|-----------------------------------------------------------------|
B|-----------------------------------------------------------------|
G|-----------------------------------------------------------------|
D|-97------------7-97--------7---------------------7-------7-------|
A|---975---575-------975-7/9---9-9b9---------------------9---5-----|
D|-------------9---------------------------------------------------|

e|-----------------------------------------------------------------|
B|-----------------------------------------------------------------|
G|-----------------------------------------------------------------|
D|-97------------7-97--------7---------------------7-------7-9-9-7-|
A|---975---575-------975-7/9---9-9b9---------------------9---------|
D|-------------9---------------------------------------------------|

e|-----------------------------------------------------------------|
B|-----------------------------------------------------------------|
G|-9-9-7-7-6-6-4-4-6-6-4-4-6-6-7-7-9-9-7-7-6-6-4-4-6-6-4-4-6-6b----|
D|-----------------------------------------------------------------|
A|-----------------------------------------------------------------|
D|-----------------------------------------------------------------|

e|-----------------------------------------------------------------|
B|-----------------------------------------------------------------|
G|-9-9-7-7-6-6-4-4-6-6-4-4-6-6-7-7-9-9-7-7-6-6-4-4-6-6-4-4-6-6b----|
D|-----------------------------------------------------------------|
A|-----------------------------------------------------------------|
D|-----------------------------------------------------------------|

[fade after solo]

G
tell me did the bones collide
the bones collide
	     D
the bones collide
		    G
little lover’s so polite
so polite
 D
so polite

That's it pretty much for this song.  There are a few slides between notes in the solo 
i didn't tab out.
comments
print report bad tab
4 comments total. Showing first comments.
+1 reply
witmachine wrote on October 28 2007, 04:39 am

this one and the other one are the just about the same and were submitted the same day... weird ...

0 reply
w7w7w7 wrote on April 19 2008, 02:54 pm

I think there are some mistakes for the solo. The same mistakes as in the other tab on UG, which makes me doubtful.

But for instance, instead of :
D|-------------------------9~-|
A|-2/5-5-----0/5-7~----0/7----|

I'd say :
D|-------------------------9~-|
A|-2/5-5-----0h2-7~----0h2----|

I'll try to tab it and post it on UG.

0 reply
AidanSC91 wrote on May 12 2009, 05:46 pm

You totally nailed the intro.

The other tab is kind of off.
The notes are right, but it was missing a lower note.

Kudos!, solo is off though

combine these two tabs and its perfect.

I want to post or [tab]
guest
You may want to rate the tab now too:
select rating
Please do not post tabs as comments. Select "correction" instead!