Oops, an error
Loading. Please wait.

Mean Spirits Bass Tab

version 1
version 1

Whole song

Interactive

3,100 views 3 this week
1 commentread comment
1 2 3 4 5
excellent!
x 5
add to favorites
launch autoscroll
font size
0
reset
guitar tuner
Tab Pro tools
  • play this tab
  • loop segment
  • change instrument
  • show fretboard
  • metronome
×
Best way to learn
"Mean Spirits"
Autoscroll
slow
fast
+/-
esc
set tempo
stop
Contributor
Difficulty
intermediate
----------------------------------------------------
Mean Spirits - Silversun Pickups (Neck Of The Woods)
----------------------------------------------------

E-mail: jordansummers226@gmail.com
Tuning: Drop Db (Db Ab Db Gb)

This song has a great riff. One of the coolest I've heard! 
It's basically repeating the same parts but they're all slightly different and 
reorganized each time. 
Please rate and enjoy!

Intro (0:00-0:04)
Gb|------------------|
Db|------------------|
Ab|------------------|
Db|-3333333333333333-|


Main Riff (0:04-0:27) 
Gb|-----------------------------------------------------------------|
Db|-----------------------------------------------------------------|
Ab|-----5---3-5-------3-5---5-3-0-------5---3-5-------3-5---5-3-0---|
Db|-0-----0-----3-0-------0-------3-0-----0-----3-0-------0-------3-| x1
        
Gb|-----------------------------------------------------------------|
Db|-----------------------------------------------------------------|
Ab|-----5---3-5-------3-5---5-3-0-------5---3-5-------3-5---5-3-0---|
Db|-2-0---0-----3-0-------0-------3-0-----0-----3-0-------0-------3-| x2

Gb|---------------------------------------------------------------|
Db|---------------------------------------------------------------|
Ab|-----5---3-5-------3-5---5-3-0-------5---3-5-------3-5---5-3-0-|
Db|-2-0---0-----3-0-------0-------3-0-----0-----3-0-------0-------| x1


Secondary (0:27-0:33)
Gb|--------------------------------------------------|
Db|--------------------------------------------------|
Ab|-1-1---1-1---1-1---1-1---1-1---1-1---1-1---1--33--|
Db|------------------------------------------------3-|


Main Riff (0:33-0:45)
Gb|-----------------------------------------------------------------|
Db|-----------------------------------------------------------------|
Ab|-----5---3-5-------3-5---5-3-0-------5---3-5-------3-5---5-3-0---|
Db|-0-0---0-----3-0-------0-------3-0-----0-----3-0-------0-------3-| 
        
Gb|---------------------------------------------------------------|
Db|---------------------------------------------------------------|
Ab|-----5---3-5-------3-5---5-3-0-------5---3-5-------3-5---5-3-0-|
Db|-2-0---0-----3-0-------0-------3-2-0---0-----3-0-------0-------|


Secondary (0:45-0:51)
Gb|-------------------------------------------------|
Db|-------------------------------------------------|
Ab|-11---1-1---111---1-1---111---1-1---111---1--33--|
Db|-----------------------------------------------3-|


Main Riff (0:51-1:08)
Gb|-----------------------------------------------------------------|
Db|-----------------------------------------------------------------|
Ab|-----5---3-5-------3-5---5-3-0-------5---3-5-------3-5---5-3-0---|
Db|-0-0---0-----3-0-------0-------3-0-----0-----3-0-------0-------3-|
        
Gb|-----------------------------------------------------------------|
Db|-----------------------------------------------------------------|
Ab|-----5---3-5-------3-5---5-3-0-------5---3-5-------3-5---5-3-0---|
Db|-2-0---0-----3-0-------0-------3-0-----0-----3-0-------0-------3-| 

Gb|---------------------------------------------------------------|
Db|---------------------------------------------------------------|
Ab|-----5---3-5-------3-5---5-3-0-------5---3-5-------3-5---5-3-0-|
Db|-2-0---0-----3-0-------0-------3-2-0---0-----3-0-------0-------|


Secondary (1:08-1:14)
Gb|-------------------------------------------------|
Db|-------------------------------------------------|
Ab|-11---1-1---111---1-1---111---1-1---111---1--33--|
Db|-----------------------------------------------3-|


Main Riff (1:14-1:20)
Gb|---------------------------------------------------------------|
Db|---------------------------------------------------------------|
Ab|-----5---3-5-------3-5---5-3-0-------5---3-5-------3-5---5-3-0-|
Db|-0-0---0-----3-0-------0-------3-0-----0-----3-0-------0-------|


Secondary II (1:20-1:26)
Gb|--------------------------------------------------|
Db|--------------------------------------------------|
Ab|-11---1-1---111---1-1---133---3-3---333---3-------|
Db|----------------------------------------------320-|


Main Riff (1:26-1:38)
Gb|-----------------------------------------------------------------|
Db|-----------------------------------------------------------------|
Ab|-----5---3-5-------3-5---5-3-0-------5---3-5-------3-5---5-3-0---|
Db|-x-0---0-----3-0-------0-------3-0-0---0-----3-0-------0-------3-| 
        
Gb|---------------------------------------------------------------|
Db|---------------------------------------------------------------|
Ab|-----5---3-5-------3-5---5-3-0-------5---3-5-------3-5---5-3-0-|
Db|-2-0---0-----3-0-------0-------3-0-----0-----3-0-------0-------|


Chorus (1:38-2:02)
Gb|--------------------------------------------------------------------------------|
Db|--------------------------------------------------------------------------------|
Ab|-11---1-1---111---1-1---111---1-1---111---1-11--------------------------------1-|
Db|----------------------------------------------3-335-550-000-003-335-550-000-00--|

Gb|--------------------------------------------------------------------------------|
Db|--------------------------------------------------------------------------------|
Ab|-11---1-1---111---1-1---111---1-1---111---1-11----------------------------------|
Db|----------------------------------------------3-335-550-000-003-335-550-000-320-|


Main Riff (2:02-2:19)
Gb|-----------------------------------------------------------------|
Db|-----------------------------------------------------------------|
Ab|-----5---3-5-------3-5---5-3-0-------5---3-5-------3-5---5-3-0---|
Db|-x-0---0-----3-0-------0-------3-0-0---0-----3-0-------0-------3-|
 
Gb|-----------------------------------------------------------------|
Db|-----------------------------------------------------------------|
Ab|-----5---3-5-------3-5---5-3-0-------5---3-5-------3-5---5-3-0---|
Db|-2-0---0-----3-0-------0-------3-0-0---0-----3-0-------0-------3-| 

Gb|---------------------------------------------------------------|
Db|---------------------------------------------------------------|
Ab|-----5---3-5-------3-5---5-3-0-------5---3-5-------3-5---5-3-0-|
Db|-2-0---0-----3-0-------0-------3-2-0---0-----3-0-------0-------|


Secondary (2:19-2:25)
Gb|-------------------------------------------------|
Db|-------------------------------------------------|
Ab|-11---1-1---111---1-1---111---1-1---111---1--33--|
Db|-----------------------------------------------3-|

Main Riff (2:25-2:31)
Gb|---------------------------------------------------------------|
Db|---------------------------------------------------------------|
Ab|-----5---3-5-------3-5---5-3-0-------5---3-5-------3-5---5-3-0-|
Db|-0-0---0-----3-0-------0-------3-0-----0-----3-0-------0-------|


Secondary II (2:31-2:37)
Gb|--------------------------------------------------|
Db|--------------------------------------------------|
Ab|-11---1-1---111---1-1---133---3-3---333---3-------|
Db|----------------------------------------------320-|


Main Riff (2:37-2:49)
Gb|-----------------------------------------------------------------|
Db|-----------------------------------------------------------------|
Ab|-----5---3-5-------3-5---5-3-0-------5---3-5-------3-5---5-3-0---|
Db|-x-0---0-----3-0-------0-------3-0-0---0-----3-0-------0-------3-| 
        
Gb|---------------------------------------------------------------|
Db|---------------------------------------------------------------|
Ab|-----5---3-5-------3-5---5-3-0-------5---3-5-------3-5---5-3-0-|
Db|-2-0---0-----3-0-------0-------3-0-0---0-----3-0-------0-------|


Chorus (2:49-3:12)
Gb|--------------------------------------------------------------------------------|
Db|--------------------------------------------------------------------------------|
Ab|-11---1-1---111---1-1---111---1-1---111---1-11--------------------------------1-|
Db|----------------------------------------------3-335-550-000-003-335-550-000-00--|

Gb|--------------------------------------------------------------------------------|
Db|--------------------------------------------------------------------------------|
Ab|-11---1-1---111---1-1---111---1-1---111---1-11----------------------------------|
Db|----------------------------------------------3-335-550-000-003-335-550-000-320-|


Bridge (3:12-3:24)
Gb|-------------------------------|
Db|-------------------------------|
Ab|-5-3-0-------5-3-0-------------|
Db|-------3-2-0-------3-2-0-3-2-0-| x4


Guitar Solo/Chorus (3:24-4:11)
Gb|--------------------------------------------------------------------------------|
Db|--------------------------------------------------------------------------------|
Ab|-11---1-1---111---1-1---111---1-1---111---1-11--------------------------------1-|
Db|----------------------------------------------3-335-550-000-003-335-550-000-00--|

Gb|--------------------------------------------------------------------------------|
Db|--------------------------------------------------------------------------------|
Ab|-11---1-1---111---1-1---111---1-1---111---1-11----------------------------------|
Db|----------------------------------------------3-335-550-000-003-335-550---------|

Gb|--------------------------------------------------------------------------------|
Db|--------------------------------------------------------------------------------|
Ab|-11---1-1---111---1-1---111---1-1---111---1-11--------------------------------1-|
Db|----------------------------------------------3-335-550-000-003-335-550-000-00--|

Gb|--------------------------------------------------------------------------------|
Db|--------------------------------------------------------------------------------|
Ab|-11---1-1---111---1-1---111---1-1---111---1-11----------------------------------|
Db|----------------------------------------------3-335-550-000-003-335-550-000-320-|


Intro (4:11-4:17)
Gb|-----------------------------------|
Db|-----------------------------------|
Ab|-----------------------------------|
Db|-333333333333333333333333333333333-|


Rest (4:17-4:21)


Outro (4:21-4:49)
Gb|-----------------------------------------------------------|
Db|-----------------------------------------------------------|
Ab|-----------------------------1-111111-111111-111111-111----|
Db|-0-000000-000000-000000-00023--------------------------320-| x2
comments
print report bad tab
1 comment total.
0 reply
MasterMicahWH wrote on February 2 2016, 12:38 pm

GG M8 8/8 WOULD R33D AGAIN

I want to post or [tab]
guest
You may want to rate the tab now too:
select rating
Please do not post tabs as comments. Select "correction" instead!