Oops, an error
Loading. Please wait.

Nightlight tab

version 1
version 1

Whole song

Interactive

4,500 views 12 this week
no commentswrite comment
1 2 3 4 5
x 8
add to favorites
×
Save as Personal and add changes to this tab that will be seen only by you. Learn more ›
×
You can save this tab as Personal to edit and correct it or add notes. All changes will be seen only by you. Learn more »
launch autoscroll
font size
0
reset
how to read this tab
guitar tuner
backing track
0:00
0:00
edit
Autoscroll
slow
fast
+/-
esc
set tempo
stop
Tuning: D A D G B E (Drop D)

[Intro]
(0:07-0:22)
e|---------------------------------------------------------------------------|
B|---------------------------------------------------------------------------|
G|---------------------------------------------------------------------------|
D|-9-------7------5----------------------------------------------------------| (x2)
A|-9(x16)--7(x8)--5(x8)------------------------------------------------------|
E|-9-------7------5----------------------------------------------------------|

[Pre-Chorus]
(0:53-0:56) 
e|---------------------------------------------------------------------------|
B|---------------------------------------------------------------------------|
G|-4-------------------------------------------------------------------------|
D|-2-------------------------------------------------------------------------|
A|-2(x16)--------------------------------------------------------------------|
E|-2-------------------------------------------------------------------------|

[Chorus]
(0:56-1:08)
e|---------------------------------------------------------------------------|
B|---------------------------------------------------------------------------|
G|---------------------------------------------------------------------------|
D|-5------4------2-------5------7--------------------------------------------|
A|-5(x8)--4(x8)--2(x16)--5(x8)--7(x8)----------------------------------------|
E|-5------4------2-------5------7--------------------------------------------|

[Instrumental]
(1:09-1:23)
e|---------------------------------------------------------------------------|
B|---------------------------------------------------------------------------|
G|---------------------------------------------------------------------------|
D|-9-------7------5----------------------------------------------------------| (x2)
A|-9(x16)--7(x8)--5(x8)------------------------------------------------------|
E|-9-------7------5----------------------------------------------------------|

[Solo]
(1:24-1:53)
e|---------------------------------------------------------------------------|
B|---------------------------------------------------------------------------|
G|--------9-11--------------------------------9h11---------------------------|
D|-9-12-9-------9---------OR---------9-12-9-12------9------------------------|
A|---------------------------------------------------------------------------|
E|---------------------------------------------------------------------------|

[Pre-Chorus]
(1:53-1:57) 
e|---------------------------------------------------------------------------|
B|---------------------------------------------------------------------------|
G|-4-------------------------------------------------------------------------|
D|-2-------------------------------------------------------------------------|
A|-2(x16)--------------------------------------------------------------------|
E|-2-------------------------------------------------------------------------|

[Chorus]
(1:58-2:09)
e|---------------------------------------------------------------------------|
B|---------------------------------------------------------------------------|
G|---------------------------------------------------------------------------|
D|-5------4------2-------5------7--------------------------------------------|
A|-5(x8)--4(x8)--2(x16)--5(x8)--7(x8)----------------------------------------|
E|-5------4------2-------5------7--------------------------------------------|

[Instrumental]
(2:10-2:40)
e|---------------------------------------------------------------------------|
B|---------------------------------------------------------------------------|
G|---------------------------------------------------------------------------|
D|-9-------7------5----------------------------------------------------------| (x4)
A|-9(x16)--7(x8)--5(x8)------------------------------------------------------|
E|-9-------7------5----------------------------------------------------------|

[Solo]
(2:55-3:09)
e|---------------------------------------------------------------------------|
B|---------------------------------------------------------------------------|
G|--------9-11--------------------------------9h11---------------------------|
D|-9-12-9-------9---------OR---------9-12-9-12------9------------------------|
A|---------------------------------------------------------------------------|
E|---------------------------------------------------------------------------|

[Chorus]
(3:10-3:21)
e|---------------------------------------------------------------------------|
B|---------------------------------------------------------------------------|
G|---------------------------------------------------------------------------|
D|-5------4------2-------5------7--------------------------------------------|
A|-5(x8)--4(x8)--2(x16)--5(x8)--7(x8)----------------------------------------|
E|-5------4------2-------5------7--------------------------------------------|

[Verse]
(End on barred 9(Let Ring) after you play the barred 7)
(3:22-3:52)
e|--------------------------------------------------------------------------------|
B|--------------------------------------------------------------------------------|
G|--------------------------------------------------------------------------------|
D|-2-------------5-------------0-------------2------------7------------9----------|
A|-2-Let Ring----5-Let Ring----0-Let Ring----2-Let Ring---7-Let Ring---9-Let Ring-| (x2)
E|-2-------------5-------------0-------------2------------7------------9----------|


[Instrumental]
(3:53-4:23)
e|---------------------------------------------------------------------------|
B|---------------------------------------------------------------------------|
G|---------------------------------------------------------------------------|
D|-9-------7------5----------------------------------------------------------| (x4)
A|-9(x16)--7(x8)--5(x8)------------------------------------------------------|
E|-9-------7------5----------------------------------------------------------|

(4:24-4:36)
(You'll be coming into this last part on a barred 9th fret (Let Ring))
e|--------------------------------------------------------------------------------|
B|--------------------------------------------------------------------------------|
G|--------------------------------------------------------------------------------|
D|--7-----------0------------5-----------9------------7-----------0------------5--|
A|--7-Let Ring--0-Let Ring---5-Let Ring--9-Let Ring---7-Let Ring--0-Let Ring---5--| (Let Ring)
E|--7-----------0------------5-----------9------------7-----------0------------5--|


************************************

| h  Hammer-on

************************************

            
            
Suggest correction
Creating personal tab
Creating personal tab
You can edit any tab online and save it as your Personal.

You can edit, replace or remove any tab part or add personal notes – all changes will be seen only by you.

Personal tabs can be accessed anytime from any device, even offline.
Learn more »
comments
print report bad tab
guest
You may want to rate the tab now too:
select rating
Wanna post a correction for this tab? Suggest correction