Oops, an error
Loading. Please wait.

Panic Switch bass

version 2
version 2

Whole song

Interactive

9,920 views 1 this week
1 commentread comment
1 2 3 4 5
x 4
add to favorites
×
Save as Personal and add changes to this tab that will be seen only by you. Learn more ›
×
You can save this tab as Personal to edit and correct it or add notes. All changes will be seen only by you. Learn more »
launch autoscroll
font size
0
reset
guitar tuner
backing track
0:00
0:00
edit
Autoscroll
slow
fast
+/-
esc
set tempo
stop
Artist: Silversun Pickups
Song: Panic Switch
Tabbed by: Chris Corbell
Email: chriscorbell@live.com
130 BPM
Tuning (Low to High): Eb Ab Db Gb (or D# G# C# F#)
--------------------------------------------------

Ok, so technically this song can be played in standard tuning,
but I find it FAR more easier to play it half-step down.

Intro
Gb|----------------|
Db|4-----------0-2-|
Ab|------2--0------| (Repeat A LOT)
Eb|---2------------|

Verse 1
Gb|----------------|----------------|----------------|----------------|
Db|4-----------0-2-|4-----------0-2-|4-----------0-2-|4-----------0-2-|
Ab|------2--0------|------2--0------|------2--0------|------2--0------|
Eb|---2------------|---2------------|---2------------|---2------------|

Gb|----------------|----------------|----------------|----------------|
Db|4-----------0-2-|4---------------|----------------|----------------|
Ab|------2--0------|------2--0--0-2-|4-----4-----4---|4-----4-----4---|
Eb|---2------------|---2------------|---4-----4----4-|---4-----4----4-|

Gb|----------------|----------------|----------------|----------------|
Db|4-----------0-2-|4-----------0-2-|4-----------0-2-|4-----------0-2-|
Ab|------2--0------|------2--0------|------2--0------|------2--0------|
Eb|---2------------|---2------------|---2------------|---2------------|

Gb|----------------|----------------|----------------|----------------|
Db|4-----------0-2-|4---------------|----------------|----------------|
Ab|------2--0------|------2--0--4-2-|4-----4-----4---|4-----4-----4---|
Eb|---2------------|---2------------|---4-----4----4-|---4-----4----4-|

Pre-chorus 1
Gb|----------------|----------------|----------------|----------------|
Db|----------------|----------------|----------------|----------------|
Ab|2--0--2--0--2-0-|2--0--2--0--2-0-|4-----4-----4---|7-7-7-7-7-7-7-7-|
Eb|----------------|----------------|---4-----4----4-|----------------|

Gb|----------------|----------------|----------------|----------------|
Db|4-----------0-2-|4-----------0-2-|4-----------0-2-|4---------------|
Ab|------2--0------|------2--0------|------2--0------|------2--0--5-4-|
Eb|---2------------|---2------------|---2------------|---2------------|

Chorus 1
Gb|----------------|----------------|----------------|----------------|
Db|----------------|----------------|----------------|----------------|
Ab|5-5-5-5-5-5-5-0-|9-9-9-9-9-9-9-0-|7-7-7-7-7-7-7-0-|4-4-4-4-4-4-4-0-|
Eb|----------------|----------------|----------------|----------------|

Gb|----------------|----------------|----------------|----------------|
Db|----------------|----------------|----------------|----------------|
Ab|5-5-5-5-5-5-5-0-|9-9-9-9-9-9-9-0-|4-4-4-4-4-4-4-0-|7-7-7-7-7-7-7-7-|
Eb|----------------|----------------|----------------|----------------|
                                       (The last two bars are not mixed
                                           up, that's how it's played.)
Post-chorus 1
Gb|----------------|----------------|----------------|----------------|
Db|4-----------0-2-|4-----------0-2-|4-----------0-2-|4-----------0-2-|
Ab|------2--0------|------2--0------|------2--0------|------2--0------|
Eb|---2------------|---2------------|---2------------|---2------------|

Gb|----------------|----------------|----------------|----------------|
Db|4-----------0-2-|4-----------0-2-|4-----------0-2-|4-----------0-2-|
Ab|------2--0------|------2--0------|------2--0------|------2--0------|
Eb|---2------------|---2------------|---2------------|---2------------|

Verse 2
Gb|----------------|----------------|----------------|----------------|
Db|4-----------0-2-|4-----------0-2-|4-----------0-2-|4-----------0-2-|
Ab|------2--0------|------2--0------|------2--0------|------2--0------|
Eb|---2------------|---2------------|---2------------|---2------------|

Gb|----------------|----------------|----------------|----------------|
Db|4-----------0-2-|4---------------|----------------|----------------|
Ab|------2--0------|------2--0--0-2-|4-----4-----4---|4-----4-----4---|
Eb|---2------------|---2------------|---4-----4----4-|---4-----4----4-|

Gb|----------------|----------------|----------------|----------------|
Db|4-----------0-2-|4-----------0-2-|4-----------0-2-|4-----------0-2-|
Ab|------2--0------|------2--0------|------2--0------|------2--0------|
Eb|---2------------|---2------------|---2------------|---2------------|

Gb|----------------|----------------|----------------|----------------|
Db|4-----------0-2-|4---------------|----------------|----------------|
Ab|------2--0------|------2--0--4-2-|4-----4-----4---|4-----4-----4---|
Eb|---2------------|---2------------|---4-----4----4-|---4-----4----4-|

Pre-chorus 2
Gb|----------------|----------------|----------------|----------------|
Db|----------------|----------------|----------------|----------------|
Ab|2--0--2--0--2-0-|2--0--2--0--2-0-|4-----4-----4---|7-7-7-7-7-7-7-7-|
Eb|----------------|----------------|---4-----4----4-|----------------|

Gb|----------------|----------------|----------------|----------------|
Db|4-----------0-2-|4-----------0-2-|4-----------0-2-|4---------------|
Ab|------2--0------|------2--0------|------2--0------|------2--0--5-4-|
Eb|---2------------|---2------------|---2------------|---2------------|

Chorus 2
Gb|----------------|----------------|----------------|----------------|
Db|----------------|----------------|----------------|----------------|
Ab|5-5-5-5-5-5-5-0-|9-9-9-9-9-9-9-0-|7-7-7-7-7-7-7-0-|4-4-4-4-4-4-4-0-|
Eb|----------------|----------------|----------------|----------------|

Gb|----------------|----------------|----------------|----------------|
Db|----------------|----------------|----------------|----------------|
Ab|5-5-5-5-5-5-5-0-|9-9-9-9-9-9-9-0-|4-4-4-4-4-4-4-0-|7-7-7-7-7-7-7-7-|
Eb|----------------|----------------|----------------|----------------|

Bridge
Gb|----------------|----------------|----------------|----------------|
Db|4-----------0-2-|4-----------0-2-|4-----------0-2-|4-----------0-2-|
Ab|------2--0------|------2--0------|------2--0------|------2--0------| x3
Eb|---2------------|---2------------|---2------------|---2------------|

Gb|----------------|----------------|----------------|----------------|
Db|4-----------0-2-|4-----------0-2-|4---------------|----------------|
Ab|------2--0------|------2--0------|------2--0--4-0-|4-4-4-4-4-4-4-4-|
Eb|---2------------|---2------------|---2------------|----------------|

Gb|----------------|----------------|----------------|----------------|
Db|4-----------0-2-|4-----------0-2-|4-----------0-2-|4-----------0-2-|
Ab|------2--0------|------2--0------|------2--0------|------2--0------| x4
Eb|---2------------|---2------------|---2------------|---2------------|

Gb|----------------|----------------|----------------|----------------|
Db|----------------|----------------|----------------|----------------|
Ab|9-9-9-9-9-9-9-7-|7-7-7-7-7-7-7-7-|7-7-7-7-7-7-7-9-|9-9-9-9-9-9-9-9-| x2
Eb|----------------|----------------|----------------|----------------|

Chorus 3
Gb|----------------|----------------|----------------|----------------|
Db|----------------|----------------|----------------|----------------|
Ab|5-5-5-5-5-5-5-0-|9-9-9-9-9-9-9-0-|7-7-7-7-7-7-7-0-|4-4-4-4-4-4-4-0-|
Eb|----------------|----------------|----------------|----------------|

Gb|----------------|----------------|----------------|----------------|
Db|----------------|----------------|----------------|----------------|
Ab|5-5-5-5-5-5-5-0-|9-9-9-9-9-9-9-0-|4-4-4-4-4-4-4-0-|7-7-7-7-7-7-7-7-|
Eb|----------------|----------------|----------------|----------------|
                                    (^^ This MIGHT be
                                     a different note,
                                     I'm not sure.)
Ending
Gb|----------------|----------------|----------------|----------------|
Db|4-----------0-2-|4-----------0-2-|4-----------0-2-|4-----------0-2-|
Ab|------2--0------|------2--0------|------2--0------|------2--0------| x2
Eb|---2------------|---2------------|---2------------|---2------------|

Any corrections are welcome, though I believe this is AT LEAST 99% correct.

            
            
Suggest correction
Creating personal tab
Creating personal tab
You can edit any tab online and save it as your Personal.

You can edit, replace or remove any tab part or add personal notes – all changes will be seen only by you.

Personal tabs can be accessed anytime from any device, even offline.
Learn more »
comments
print report bad tab
1 comment total.
-1 reply
MrChuckieRock 10 Jun 10, 2010 12:26 PM

i think your right...i think this is MUCH easier to play then the standard tuning version.

guest
You may want to rate the tab now too:
select rating
Wanna post a correction for this tab? Suggest correction