Oops, an error
Loading. Please wait.

Rusted Wheel bass

version 1
version 1

Whole song

Interactive

6,494 views 3 this week
1 commentread comment
1 2 3 4 5
x 5
add to favorites
×
Save as Personal and add changes to this tab that will be seen only by you. Learn more ›
×
You can save this tab as Personal to edit and correct it or add notes. All changes will be seen only by you. Learn more »
launch autoscroll
font size
0
reset
guitar tuner
backing track
0:00
0:00
edit
Autoscroll
slow
fast
+/-
esc
set tempo
stop
Author
Difficulty
Broken into 4-beat measures

Bass Line played softly by guitar until 1:10

G|-----------------|-----------------|-----------------|
D|-----------------|-----------------|-----------------|
A|-----------------|-0-0-0-0-0-0-0-0-|-2-2-2-2-2-2-2-2-|
E|-3-3-3-3-3-3-3-3-|-----------------|-----------------|


1:10 – Bass enters
G|----------------------|--------------------|
D|----------------------|--------------------|
A|----------------------|-0-0------0-0-0-----|
E|-3-3-0h2—-3-3-3-0-2---|-----0h2--------0-2-|

G|----------------------|--------------------|
D|----------------------|--------------------|
A|-2-2------2-2-2-------|-2-2------2-2-2-----|
E|-----0h2--------0-2---|-----0h2--------0-2-|
(repeat this until “And it feels...”)


2:49 (22’s are two notes on 2nd fret put closer to show rhythm, same as above.)
G|------------------|-----------------|
D|-2—2-22--2-2—2-22-|-----------------|
A|------------------|-----------------|
E|------------------|-2-2-22--2-2-2-22|

G|-------------------|-------------------|
D|-------------------|-------------------|
A|-2-2------2-2-2----|-2-2------2-2-2----|
E|-----0h2--------0-2|-----0h2--------0-2|

G|-------------------|------------------|
D|-------------------|-2-2-22-----------|
A|-------------------|---------0-0-0----|
E|-3-3-0h2--3-3-3-0-2|---------------0-2|

G|-------------------|-------------------|
D|-------------------|-------------------|
A|-2-2------2-2-2----|-2-2------2-2-2----|
E|-----0h2--------0-2|-----0h2--------0-2|

G|------------------|-----------------|
D|-2—2-22--2-2—2-22-|-----------------|
A|------------------|-----------------|
E|------------------|-2-2-22--2-2-2-22|

G|-------------------|-------------------|
D|-------------------|-------------------|
A|-2-2------2-2-2----|-2-2------2-2-2----|
E|-----0h2--------0-2|-----0h2--------0-2|


G|------------------|---------------|
D|-2—2-22--2-2—2-22-|---------------|
A|------------------|---------------|
E|------------------|-2-2-22--2-2-22|


G|-------------------|-------------------|
D|-------------------|-------------------|
A|-------------------|-0-0------0-0-0----|
E|-3-3-0h2--3-3-3-0-2|-----0h2--------0-2|

3:29
G|-------------------|-------------------|
D|-------------------|-------------------|
A|-2-2------2-2-2----|-2-2------2-2-2----|
E|-----0h2--------0-2|-----0h2--------0-2|x2

3:39
G|----------------------|--------------------|
D|----------------------|--------------------|
A|----------------------|-0-0------0-0-0-----|
E|-3-3-0h2—-3-3-3-0-2---|-----0h2--------0-2-|

G|----------------------|--------------------|
D|----------------------|--------------------|
A|-2-2------2-2-2-------|-2-2------2-2-2-----|
E|-----0h2--------0-2---|-----0h2--------0-2-|
(repeat until bass cuts out around 5:20)

During some of the phrases, the guitar will be playing the bass line as well, with a 
different rhythm, don’t let it confuse you.

            
            
Suggest correction
Creating personal tab
Creating personal tab
You can edit any tab online and save it as your Personal.

You can edit, replace or remove any tab part or add personal notes – all changes will be seen only by you.

Personal tabs can be accessed anytime from any device, even offline.
Learn more »
comments
print report bad tab
1 comment total.
0 reply
mmcguire1095 88 Jan 30, 2014 02:43 PM

This tab is nearly perfect, great job man!

guest
You may want to rate the tab now too:
select rating
Wanna post a correction for this tab? Suggest correction