Oops, an error
Loading. Please wait.

Sci-Fi Lullaby Bass Tab

10 views 1 this week
no commentswrite comment
1 2 3 4 5
3 more votes to show rating
add to favorites
launch autoscroll
font size
0
reset
guitar tuner
Autoscroll
slow
fast
+/-
esc
set tempo
stop
Help us to improve Ultimate-Guitar.com Take our survey!
×
Author
Difficulty
novice
About this tab version
Tab timing based on the album version of the song. It might be in drop-D but the low D would only be played once or twice. Was this info helpful? Yes No
Artist: Silversun Pickups
Song: Sci-Fi Lullaby
Album: Pikul
Part: Bass guitar 
tab by: Charlie lose311@hotmail.com

Tuning: E A D G 

[main part] 
G|--------------------------------------|-|
D|-17-14----------14-17-/19-\17-14------|-|
A|-------17-15-17-----------------17-15-|-| x19
E|--------------------------------------|-|


(2:25)
G|------------------------------------------|-|
D|-17-14----------14------------------------|-|
A|-------17-15-17----------17-15-------14---|-|
E|----------------------15-------15-17------|-|


[main part] 
G|--------------------------------------|-|
D|-17-14----------14-17-/19-\17-14------|-|
A|-------17-15-17-----------------17-15-|-| x7
E|--------------------------------------|-|


(2:49)            
G|-------------17------------|
D|-15----19---------19--/21--|
A|---------------------------|
E|---------------------------|


G|----------------------||
D|o-17--/19--/21--/22--o||
A|o--------------------o|| x2
E|----------------------||


(3:09) [this part might be an octave lower, in drop-D]  
G|-------------------------|
D|-3-----5-7----0---2---5--|
A|-------------------------|
E|-------------------------|


(3:19)
G|-----------------------------||
D|-3-----3-----7--9--10--12----||
A|-----------------------------|| x6
E|-----------------------------||


(4:01) [main part] 
G|--------------------------------------|-|
D|-17-14----------14-17-/19-\17-14------|-|
A|-------17-15-17-----------------17-15-|-| x2
E|--------------------------------------|-|


G|----------------------||
D|o-17--/19--/21--/22--o||
A|o--------------------o|| x2
E|----------------------||


[main part] 
G|--------------------------------------|-|
D|-17-14----------14-17-/19-\17-14------|-|
A|-------17-15-17-----------------17-15-|-| x4
E|--------------------------------------|-|


G|---------------------||
D|--17--/19--/21--/22--||
A|---------------------||
E|---------------------||


***********************************
| /   slide up
| \   slide down
***********************************
Suggest correction
Give kudos to tab author, rate the tab!
1 2 3 4 5
comments
print report bad tab
guest
You may want to rate the tab now too:
select rating
Wanna post a correction for this tab? Suggest correction