Oops, an error
Loading. Please wait.

Seasick tab

881 views 1 this week
4 commentsread comments
1 2 3 4 5
x 3
add to favorites
×
Save as Personal and add changes to this tab that will be seen only by you. Learn more ›
×
You can save this tab as Personal to edit and correct it or add notes. All changes will be seen only by you. Learn more »
launch autoscroll
font size
0
reset
how to read this tab
guitar tuner
edit
Autoscroll
slow
fast
+/-
esc
set tempo
stop
Author
Difficulty
Not 100% on this but I figured since no
one has a tab for this out there might
as well give it a shot.
Any corrections are welcome.
As noted below this can be easily be played in standard tuning
by dropping all notes on the first string by 2 frets, the example I found however had it in drop D

The initial intro has no guitar but can be played as such:
Intro:
e ---------------------|
B ---------------------|
G --10-8--12--5-5-5-5--|
d --10-8--12--5-5-5-5--| 
A --8--6--10--3-3-3-3--|
D ---------------------|

Verse 1:
"What can we do"
e -----------|
B -----------|
G -----4-----|
d --3--4--6--|
A --3--2--6--|
D --3-----6--|
"To make this worse?
Where can we lay down
A blanket of fallen leaves
Too thin to sweep"

Interlude:
e ---------------------    ----------------------|
B -------------7-------    -------------7--------|
G --8h10-10-10---10-8--    --8h10-10-10---10-----|
d --------------------- x3 ------------------10--|
A ---------------------    ----------------------|
D ---------------------    ----------------------|
Play Twice

Repeat Verse 2:
"Scatter dry heaves"
e --------------|
B --------------|
G -----4--------|
d --3--4--6--8--|
A --3--2--6--8--|
D --3-----6--8--|
"My stomach s turning
Floorboards keep moving
the direction of casualties"
At least that’s how it seems."

Chorus:
"Don t make a sound..."
e -------------------------------|
B --6----8--9----8--6----8----9--|
G --X----X--X----X--X----X----X--|
d --6----8--6----8--6----8----8--|
A --4----6--8----6--4----6----6--|
D -------------------------------|
"it throws me off.
My center of gravity is lost.
Don t fake alarms, don t siren off,
Don t make a sound, it throws me off."

Intro 2 with Guitar:
e -----------------------------|
B -----------------------------|
G --10-8--12--5----6--3--5-----|
d --10-8--12--5----6--3--5--3--| x2
A --8--6--10--3----4--1--3--3--|
D --------------------------3--|

Repeat Interlude:
"Branches enclose
These walls won’t hold.
Don t tell from the peril of
the roots of your family tree
Or let them see,
Cause it s buried too deep"

Chorus:

"Don t make a sound, it throws me off.
My center of gravity is lost.
Don t fake alarms, don t siren off,
Don t make a sound, it throws me off."

Bridge:
e --------------------------|
B --------------------------|
G --10--12--13----10--8--7--|
d --10--12--13----10--8--8--|
A --8---10--11----8---6--5--|
D --------------------------|
"If you only knew
Trying to do
Trying to do
Keep my head high
Remain upright
Remain upright
visualize
objects in sky
objects in sky"

e ----------|
B ----------|
G --3----5--|
d --3----5--|
A --1----3--|
D ----------|
"that this will lead us underground
they will face this underground
I will be there underground
waiting patient underground"

Repeat Verse 2:
"She sways over to me
Pointing overboard, but I can't see nothing
She sways over to me Shes still going on, but I cant hear anything
She sways over to me Pointing overboard, but I can't see nothing
She sways over to me Shes still going on, but I cant hear anything"

Chorus:

"Don t make a sound, it throws me off.
My center of gravity is lost.
Don t fake alarms, don t siren off,
Don t make a sound, it throws me off."

Outro:

e -------------|
B -------------|
G -------------|
d --8h10----8--|
A --8-------6--|
D -------------|
Suggest correction
Creating personal tab
Creating personal tab
You can edit any tab online and save it as your Personal.

You can edit, replace or remove any tab part or add personal notes – all changes will be seen only by you.

Personal tabs can be accessed anytime from any device, even offline.
Learn more »
Give kudos to tab author, rate the tab!
1 2 3 4 5
comments
print report bad tab
4 comments total. Showing first comments.
0 reply
rsully 31 Dec 08, 2012 12:06 PM

Verse:

F, C#, G#, A#

Sometimes the A# is omitted

0 reply
SB4Life 42 Feb 03, 2015 04:47 AM, edited at 09:50 am

This can be perfectly played in Standard tuning.Should be corrected in the verse tho. In the verse just play e -----------|B -----------|G -----6-----|d --3--6--6--|A --3--4--6--|E --1-----3--|

Also for easier viewing, the intro should be put before the verse, since it makes more sense like that. Cheers.

0 reply
SB4Life 42 Feb 03, 2015 04:57 AM

Alright, for some reason i can't delete my comment above so i'm just gonna post it corrected again.

-------------------------

This can be perfectly played in Standard tuning.Should be corrected in the verse tho. In the verse just play:
e -----------|
B -----------|
G -----6-----|
d --3--6--6--|
A --3--4--6--|
D --1-----4--|

Also for easier viewing, the intro should be put before the verse, since it makes more sense like that. Cheers.

guest
You may want to rate the tab now too:
select rating
Wanna post a correction for this tab? Suggest correction