Oops, an error
Loading. Please wait.

Three Seed tab

version 1
version 1

Whole song

Interactive

43,492 views 45 this week
6 commentsread comments
1 2 3 4 5
x 17
add to favorites
×
Save as Personal and add changes to this tab that will be seen only by you. Learn more ›
×
You can save this tab as Personal to edit and correct it or add notes. All changes will be seen only by you. Learn more »
launch autoscroll
font size
0
reset
how to read this tab
guitar tuner
edit
Autoscroll
slow
fast
+/-
esc
set tempo
stop
Author
Difficulty
-------------------------------------------------------------------------------
                             Three Seed - Silversun Pickups
-------------------------------------------------------------------------------
Tabbed by: Ryan Atkinson
Email: rratky11@yahoo.ca

Tuning: Standard

Riff 1
e|-----14---------------17-----14-------0-----------15----14-----------------|
B|--------15----17-15------15-----15------15--------------------17----15-----|
G|--16-------16-------16------16-----16------16--16----16----16----16----16--|
D|---------------------------------------------------------------------------|
A|---------------------------------------------------------------------------|
E|---------------------------------------------------------------------------|

e|-----14---------------17-----14-------0-----------15----14---------15h17-14|
B|--------15----17-15------15-----15------15--------------------17-----------|
G|--16-------16-------16------16-----16------16--16----16----16----16--------|
D|---------------------------------------------------------------------------|
A|---------------------------------------------------------------------------|
E|---------------------------------------------------------------------------|


Riff 2
e|---------------------------------------------------------------------------|
B|---------------------------------------------------------------------------|
G|---------------------------------------------------------------------------|
D|--4---4---4--4--/--7--7-7-7rb----------------------------------------------|
A|--0h2---2----2--/--5--5-5-5rb---5------------------------------------------|
E|--------------------------------3------------------------------------------|

Bridge  2:45
e|-------------------------------------0-----0-----0-----------------6-6h7--9|
B|---------------------------------------------------------7--8--------------|
G|---------------------------------------7-----7-----7------------7----------|
D|--7--7---9--9---4--4---------------9-----9-----9---------------------------|
A|--5--5---7--7---2--2---4/5-5--2--------------------------------------------|
E|-----------------------2/3-3--0--------------------------------------------|


Lead  3:07
e|---------------------------------------------------------------------------|
B|--0-3-0-5-0-7-0-8-0-10/12--0-3-0-5-0-7-0-8-0-10/12--0-3-0-5-0-7-0-8-0-10/12|
G|---------------------------------------------------------------------------|
D|---------------------------------------------------------------------------|
A|---------------------------------------------------------------------------|
E|---------------------------------------------------------------------------|

e|---------------------------------------------------------------------------|
B|--0-3-0-5-0-7-0-8-0-7/5---0-3-0-5-0-7-0-8-0-10/12---0-3-0-7-0-5-0-3-0-8/7--|
G|---------------------------------------------------------------------------|
D|---------------------------------------------------------------------------|
A|---------------------------------------------------------------------------|
E|---------------------------------------------------------------------------|

e|---------------------------------------------------------------------------|
B|--0-3-0-5-0-7-0-8-0-10/12^-------------------------------------------------|
G|---------------------------------------------------------------------------|
D|---------------------------------------------------------------------------|
A|---------------------------------------------------------------------------|
E|---------------------------------------------------------------------------|

  3:33  
e|---------------------------------------------------------------------------|
B|-----------------------------12---10---------------------------------------|
G|--4----4----7-7-7-7rb------------------------------------------------------|
D|--4----4----7-7-7-7rb----------------12------------------------------------|
A|--0h2--2----5-5-5-5rb-----10---10------------------------------------------|
E|---------------------------------------------------------------------------|

e|---------------------------------------------------------------------------|
B|-----------------------------12---10----10h12--10--------------------------|
G|--4----4----7-7-7-7rb------------------------------------------------------|
D|--4----4----7-7-7-7rb-----------------------------12rb---------------------|
A|--0h2--2----5-5-5-5rb-----10---10----10------------------------------------|
E|---------------------------------------------------------------------------|x2



| /  slide up
| \  slide down
| h  hammer-on
| p  pull-off
| ~  vibrato
| +  harmonic
| x  Mute note
===============================================================================

            
            
Suggest correction
Creating personal tab
Creating personal tab
You can edit any tab online and save it as your Personal.

You can edit, replace or remove any tab part or add personal notes – all changes will be seen only by you.

Personal tabs can be accessed anytime from any device, even offline.
Learn more »
comments
print report bad tab
6 comments total. Showing first comments.
+4 reply
Jigsawwill 72 Jul 24, 2009 01:52 PM

i hear

e|-----14-------0-------17-----14-------0-----------15----14-----------------|
B|--------15-------15------15-----15------15--------------------17----15-----|
G|--16-------16-------16------16-----16------16--16----16----16----16----16--|
D|---------------------------------------------------------------------------|
A|---------------------------------------------------------------------------|
E|---------------------------------------------------------------------------|

e|-----14-------0--------17-----14-------0-----------15----14---------16h19-16|
B|--------15-------15------15-----15------15--------------------17------------|
G|--16-------16-------16------16-----16------16--16----16----16----16---------|
D|----------------------------------------------------------------------------|
A|----------------------------------------------------------------------------|
E|----------------------------------------------------------------------------|

+1 reply
silversunpickup 15 Sep 01, 2009 02:47 AM

i agree with you jigsawwill, thats what i also hear.

0 reply
infectedsanity 10 Aug 05, 2010 09:03 PM

Lil bit incorrect and incomplete, but great tab overall

guest
You may want to rate the tab now too:
select rating
Wanna post a correction for this tab? Suggest correction