Oops, an error
Loading. Please wait.

Three Seed bass

version 2
version 2

Whole song

Interactive

10,423 views 9 this week
4 commentsread comments
1 2 3 4 5
x 5
add to favorites
×
Save as Personal and add changes to this tab that will be seen only by you. Learn more ›
×
You can save this tab as Personal to edit and correct it or add notes. All changes will be seen only by you. Learn more »
launch autoscroll
font size
0
reset
guitar tuner
edit
Autoscroll
slow
fast
+/-
esc
set tempo
stop
Author
Silversun Pickups - Three Seed
Ben Chiesa (ben.chiesa@hotmail.com)

I noticed that no one had tabbed this amazing song, so I thought I'd give it a go. It's 
simple, there's basically only two parts to the song. The intro, chorus', verses etc:

G---------------------------------------------|
D---------------------------------------------|
A--0>2-2---555-5/7/5--------------------------|
E--------------------3------------------------|

and the bridge:

G-----------------------------------------------------------------|
D-----------------------------------------------------------------|
A--5-5-55-77-7/9/7--2-2-22---------------------------222222222222-|
E--------------------------22-2222--3-3-33--00-0000---------------|

G----------------------------------------------------------------|
D----------------------------------------------------------------|
A--5-5-55-77-7/9/7--2-2-22---------------------------------------|
E--------------------------22-2222--3-3-33--00-0000--------------|

(straight back into the first part from there)

The rhythm might be a little different in the bridge, but I like playing it my way. If 
don't, it's the same notes, so just figure out the timing the way you like it. That goes 
the first part also, just listen to the song for the timing if mine doesn't make sense to you.

            
            
Suggest correction
Creating personal tab
Creating personal tab
You can edit any tab online and save it as your Personal.

You can edit, replace or remove any tab part or add personal notes – all changes will be seen only by you.

Personal tabs can be accessed anytime from any device, even offline.
Learn more »
comments
print report bad tab
4 comments total. Showing first comments.
0 reply
reynog61 10 Apr 03, 2008 05:57 PM

this song is tabbed perfect great work!!!

0 reply
Acousy Joe 236 Jun 05, 2011 07:40 PM

G---------------------------------------------|
D---------------------------------------------|
A-----------------5-5---5-5h7p5--0------------|
E------5/7-7------------------------3---------|

Yours is right also. This is just the way Nikki plays it.

0 reply
Acousy Joe 236 Jun 05, 2011 07:46 PM

Instead of that 0 she seems to slide down on the A string after the pull-off then to the g note.

guest
You may want to rate the tab now too:
select rating
Wanna post a correction for this tab? Suggest correction