Oops, an error
Loading. Please wait.

Well Thought Out Twinkles bass

version 2
version 2

Whole song

Interactive

744 views 1 this week
2 commentsread comments
1 2 3 4 5
2 more votes to show rating
add to favorites
×
Save as Personal and add changes to this tab that will be seen only by you. Learn more ›
×
You can save this tab as Personal to edit and correct it or add notes. All changes will be seen only by you. Learn more »
launch autoscroll
font size
0
reset
guitar tuner
backing track
0:00
0:00
edit
Autoscroll
slow
fast
+/-
esc
set tempo
stop
Author
Difficulty
-------------------------------------------------------------------------------
Well Thought Out Twinkles - Silversun Pickups
-------------------------------------------------------------------------------

Tabbed By : Hardway Juice

Tuning: E,A,D,G

E = 11th fret
T = 12th fret

Some versions of the song start with four measures of the bass solo, but this tab is 
based on the album version.

Enjoy!  Hope it's helpful.


Intro

G----------------|----------------|----------------|----------------|
D----------------|----------------|----------------|----------------|
A-4-42-4---------|-4-42-4-4-2-2---|-4-42-4---------|-4-42-4-4-2-2---|
E--------0-0-2-0-|----------------|--------0-0-2-0-|----------------|

G----------------|----------------|----------------|-------------------------------|
D----------------|----------------|----------------|-------------------------------|
A-4-42-4---------|-4-42-4-4-2-2---|-4-42-4---------|-------------------------------|
E--------0-0-2-0-|----------------|--------0-0-2-0-|-9-90-9-90-9-0-9-9-9-9-9-9-9-9-|


1st Verse

G-----------------|-----------------|--------------------|
D-----------------|-----------------|--------------------|
A-----------------|-----------------|--------------------|
E-7-7-7-7-7-7-7-7-|-5-5-5-5-5-5-5-5-|-0-0-0---00-0---000-|

G-----------------|-----------------|-----------------|--------------------|
D-----------------|-----------------|-----------------|--------------------|
A-----------------|-----------------|-----------------|--------------------|
E-9-9-9-9-9-9-9-9-|-7-7-7-7-7-7-7-7-|-5-5-5-5-5-5-5-5-|-T-T-T---TT-T---TTT-|

G-----------------|-----------------|-----------------|--------------------|
D-----------------|-----------------|-----------------|--------------------|
A-----------------|-----------------|-----------------|--------------------|
E-9-9-9-9-9-9-9-9-|-7-7-7-7-7-7-7-7-|-5-5-5-5-5-5-5-5-|-0-0-0---00-0---000-|

G-----------------|-----------------|-----------------|
D-----------------|-----------------|-----------------|
A-----------------|-----------------|-----------------|
E-9-9-9-9-9-9-9-9-|-7-7-7-7-7-7-7-7-|-5-5-5-5-5-5-5-5-|


Break

G----------------|----------------|----------------|----------------|
D----------------|----------------|----------------|----------------|
A-4-42-4---------|-4-42-4-4-2-2---|-4-42-4---------|-4-42-4-4-2-2---|
E--------0-0-2-0-|----------------|--------0-0-2-0-|----------------|

G----------------|----------------|----------------|-------------------------------|
D----------------|----------------|----------------|-------------------------------|
A-4-42-4---------|-4-42-4-4-2-2---|-4-42-4---------|-------------------------------|
E--------0-0-2-0-|----------------|--------0-0-2-0-|-9-90-9-90-9-0-9-9-9-9-9-9-9-9-|


2nd Verse

G-----------------|-----------------|--------------------|
D-----------------|-----------------|--------------------|
A-----------------|-----------------|--------------------|
E-7-7-7-7-7-7-7-7-|-5-5-5-5-5-5-5-5-|-0-0-0---00-0---000-|

G-----------------|-----------------|-----------------|--------------------|
D-----------------|-----------------|-----------------|--------------------|
A-----------------|-----------------|-----------------|--------------------|
E-9-9-9-9-9-9-9-9-|-7-7-7-7-7-7-7-7-|-5-5-5-5-5-5-5-5-|-T-T-T---TT-T---TTT-|

G-----------------|-----------------|-----------------|--------------------|
D-----------------|-----------------|-----------------|--------------------|
A---------E-------|---------9-------|-----------------|--------------------|
E-9-9-9-9---9-9-9-|-7-7-7-7---7-7-7-|-5-5-5-5-5-5-5-5-|-0-0-0---00-0---000-|

G-----------------|-----------------|-----------------|-----------------------------------|
D-----------------|-----------------|-----------------|-----------------------------------|
A-----------------|-----------------|-----------------|-----------------------------------|
E-9-9-9-9-9-9-9-9-|-7-7-7-7-7-7-7-7-|-5-5-5-5-5-5-5-5-|-00-0-0---00-0-0---00-0-0---00-0-0-|


Bass Solo

G-----------------------------|-----------------------------|
D-----------------------------|-----------------------------|
A-----------------------------|-----------------------------|
E-9-90-9-90-9-90-9-90-9-0-9-0-|-9-90-9-90-9-90-9-90-9-0-9-0-|


Mid Section

G-----------------------------|-----------------------------|-----------------------------|
D-----------------------------|-----------------------------|-----------------------------|
A-----------------------------|-----------------------------|-----------------------------|
E-9-90-9-90-9-90-9-90-9-0-9-0-|-9-90-9-90-9-90-9-90-9-0-9-0-|-7-70-7-70-7-70-7-70-7-9-9\5-|

G-----------------------------|
D-----------------------------|
A-----------------------------|
E-5-50-5-50-5-50-5-50-5-7-7/9-|

G-----------------------------|-----------------------------|-----------------------------|
D-----------------------------|-----------------------------|-----------------------------|
A-----------------------------|-----------------------------|-----------------------------|
E-9-90-9-90-9-90-9-90-9-0-9-0-|-9-90-9-90-9-90-9-90-9-0-9-0-|-7-70-7-70-7-70-7-70-7-9-9\5-|

G-----------------------------|
D-----------------------------|
A-----------------------------|
E-5-50-5-50-5-50-5-50-5-7-7/9-|

G-----------------------------|-----------------------------|-----------------------------|
D-----------------------------|-----------------------------|-----------------------------|
A-----------------------------|-----------------------------|-----------------------------|
E-9-90-9-90-9-90-9-90-9-0-9-0-|-9-90-9-90-9-90-9-90-9-0-9-0-|-7-70-7-70-7-70-7-70-7-9-9\5-|

G-----------------------------|
D-----------------------------|
A-----------------------------|
E-5-50-5-50-5-50-5-50-5-7-7/9-|

G-----------------------------|
D-----------------------------|
A-----------------------------|
E-9-90-9-90-9-90-9-90-9-0-9-0-|  x7

G-------------------------------|
D-------------------------------|
A-------------------------------|
E-9-90-9-90-9-0-9-9-9-9-9-9-9-9-|


3rd Verse

G-----------------|-----------------|--------------------|
D-----------------|-----------------|--------------------|
A-----------------|-----------------|--------------------|
E-7-7-7-7-7-7-7-7-|-5-5-5-5-5-5-5-5-|-0-0-0---00-0---000-|

G-----------------|-----------------|-----------------|--------------------|
D-----------------|-----------------|-----------------|--------------------|
A-----------------|-----------------|-----------------|--------------------|
E-9-9-9-9-9-9-9-9-|-7-7-7-7-7-7-7-7-|-5-5-5-5-5-5-5-5-|-T-T-T---TT-T---TTT-|

G-----------------|-----------------|-----------------|--------------------|
D-----------------|-----------------|-----------------|--------------------|
A---------E-------|-----------------|-----------------|--------------------|
E-9-9-9-9---9-9-9-|-7-7-7-7-7-7-7-7-|-5-5-5-5-5-5-5-5-|-0-0-0---00-0---000-|

G-----------------|-----------------|---------------------------------|
D-----------------|-----------------|---------------------------------|
A-----------------|-----------------|---------------------------------|
E-9-9-9-9-9-9-9-9-|-7-7-7-7-7-7-7-7-|-5-5-5-5-5-5-5-5-5-5-5-5-5-5-5-5-|

G---------------------------------|---------------------------------|
D---------------------------------|---------------------------------|
A---------------------------------|---------------------------------|
E-0-0-0-0-0-0-0-0-0-0-0-0-0-0-0-0-|-5-5-5-5-5-5-5-5-5-5-5-5-5-5-5-5-|

G-----------------|---------------------------------|
D-----------------|---------------------------------|
A-----------------|---------------------------------|
E-8-8-8-8-8-8-8-8-|-7-7-7-7-7-7-7-7-7-7-7-7-7-7-7-7-|


Outro

G-----------------------------|
D-----------------------------|
A-----------------------------|
E-9-90-9-90-9-90-9-90-9-0-9-0-|  x4


| /  slide up
| \  slide down
| h  hammer-on
| p  pull-off
| ~  vibrato
| +  harmonic
| x  Mute note

            
            
Suggest correction
Creating personal tab
Creating personal tab
You can edit any tab online and save it as your Personal.

You can edit, replace or remove any tab part or add personal notes – all changes will be seen only by you.

Personal tabs can be accessed anytime from any device, even offline.
Learn more »
Give kudos to tab author, rate the tab!
1 2 3 4 5
comments
print report bad tab
2 comments total.
0 reply
Hardway Juice 73 Sep 18, 2009 02:25 PM

I made a mistake that I didn't notice until after I submitted this. At the end of the middle section, just before the outro, it should go from C (8th fret) down to B (7th fret), not A (5th fret). If anyone knows if it's possible to edit the tab itself, let me know and I'll fix it.

0 reply
Hardway Juice 73 Sep 22, 2009 02:53 PM

I just figured out how to edit the tab, so I fixed the mistakes and made some minor improvements.

guest
You may want to rate the tab now too:
select rating
Wanna post a correction for this tab? Suggest correction