Oops, an error
Loading. Please wait.

Aint Coming Home Bass Tab

version 1
version 1

Whole song

Interactive

755 views 1 this week
no commentswrite comment
1 2 3 4 5
accurate
x 3
add to favorites
launch autoscroll
font size
0
reset
guitar tuner
Autoscroll
slow
fast
+/-
esc
set tempo
stop
Help us to improve Ultimate-Guitar.com Take our survey!
×
Author
Adam91 114
Song: Ain’t Comin’ Home
Band: Silvertide
Album: Show and Tell
Tabber: Adam

INTRO 0:11

G|--------------------------------------12--------|
D|-12/14-14-14-14-14-14-14-14-14-14-12------12-14-|
A|------------------------------------14--14------|
E|------------------------------------------------|

G|----------------------------------------------|
D|----------------------------------------------|	x1
A|------------------------------------10--------|
E|-12-12-12-12-12-12-12-12-12-12-10-7---10-7-5--|

G|------------------|
D|------------------|	x4
A|----------5-------|
E|-0--5-5-5---5-5-5-|


VERSE - rest


CHORUS 0:47

G|------------------|
D|------------------|	x1
A|---------10-------|
E|-12-10-7---10-7-5-|

G|------------------|
D|------------------|	x3
A|----------5-------|
E|-0--5-5-5---5-5-5-|

G|------------------|
D|------------------|	x1
A|----------5-------|
E|-0--5-5-5---------|


VERSE - rest


CHORUS 1:20

G|------------------|
D|------------------|	x1
A|---------10-------|
E|-12-10-7---10-7-5-|

G|------------------|
D|------------------|	x7
A|----------5-------|
E|-0--5-5-5---5-5-5-|

G|------------------|
D|------------------|	x1
A|----------5-------|
E|-0--5-5-5---------|


BRIDGE 1:52

G|--------------------------|
D|------------------44-55-7-|	x3
A|-----22-33-4--5-5---------|
E|-3-3----------------------|

G|--------------------------------------------------|
D|--------------------------------------------------|	x1
A|--------------------------------------------------|
E|-5-5-5-5-5-5-5-5-5-5-5-5-5-5-5-5-5-5-5-5-5-5-5-5--|


SOLO 2:14

G|------------------|
D|------------------|	x8
A|----------5-------|
E|-0--5-5-5---5-5-5-|


INTERLUDE 2:45

G|---------------------------------|
D|---------------------------------|	x7
A|-----------------5-5-5-----------|
E|-0-0-0-5-5-5-5-5-------5-5-5-5-5-|

G|-----------------------------|
D|-----------------------------|	x1
A|---------------5--5--5-------|
E|-0-0-0-5-5-5-5---------5-5-5-|


CHORUS 3:15

G|------------------|
D|------------------|	x3
A|----------5-------|
E|-0--5-5-5---5-5-5-|

G|------------|
D|------------|	x1
A|----------5-|
E|-0--5-5-5---|

G|------------------|
D|------------------|	x3
A|----------5-------|
E|-0--5-5-5---5-5-5-|

G|--------------------------------|
D|--------------------------------|	x8
A|----------5--5--5--5------------|
E|-0--5-5-5-------------0-------0-|




Suggest correction new What's this?
You can suggest a correction to this tab. Community and Mods will review your correction and vote to approve or reject it.
comments
We did not receive enough feedback on this tab! Please rate:
print report bad tab
1 2 3 4 5
guest
You may want to rate the tab now too:
select rating
Please do not post tabs as comments. Select "correction" instead!