Oops, an error
Loading. Please wait.

Aint Coming Home Tab

version 3
version 3

Whole song

Interactive

443 views 1 this week
1 commentread comment
1 2 3 4 5
please rate
add to favorites
launch autoscroll
font size
0
reset
how to read this tab
guitar tuner
Tab Pro tools
  • play this tab
  • loop segment
  • change instrument
  • show fretboard
  • metronome
×
Best way to learn
"Aint Coming Home"
Autoscroll
slow
fast
+/-
esc
set tempo
stop
Contributor
Tuning: Regular      	Ain't Coming Home		
  
When you play this song you want an effect with a little bit of distortion but not too
much. It is regular tuning. This is a really fun song when you get it down. So here it
is. 
  
Guitar 2  Riff 1	                                Play this when 1st guitar does
e|-x---0---5—--5---5---5—--5-----------------------------------------------|
B|-x---0---5---5---6---5---5-----------------------0---5---5---6-----------|
G|-x---1—--6---6---7—--6—--6-----------------------1—--6---6---7-----------|
D|-x---2---7--—7—--7---7---7----Repeat-------------2---7---7—--7-----------|
A|-x---2—--7—--7—--5—--7—--7-----------------------2—--7—--7—--5-----------|
E|-x---0—--5—--5-------5—--5-----------------------0—--5—--5---------------| 
Plays this during intro, solos, and most of the song.
  
   Guitar 1   First Solo
e|-------------------------------------------------------------------------|
B|-----------------------------------5-5-3/5-8-5-8-8-5-8-12~~~-8-5---12-17-|
G|-----------------------------2/4-7---------------------------------------|
D|----------2/10\2---2-2-5-2-5---------------------------------------------|
A|-------------------------------------------------------------------------|
E|>>>>>>>>-----------------------------------------------------------------|
   Pick Slide
	
e|------------------17-15~~------------------------------------------------|
B|-12-17~~-17-15-12---------17-15-17-17~~-12-12-12b\10-8---10-8-----5-7/8--|
G|-------------------------------------------------------9------9-7--------|
D|-------------------------------------------------------------------------|
A|-------------------------------------------------------------------------|
E|-------------------------------------------------------------------------|

e|-------------------------------------------------------------------------|
B|-5-7/8-5-7/8-5~----------------------------------------------------------|
G|-------------------------------------------------------------------------|
D|-------------------------------------------------------------------------|
A|-------------------------------------------------------------------------|
E|-------------------------------------------------------------------------|
    
   Riff 2					     
e|----------x---0---5—--5---5---5—--5--------------------------------------|
B|----------x---0---5---5---6---5---5--------------0---5---5---6-----------|
G|----------x---1—--6---6---7—--6—--6—-------------1—--6---6---7-----------|
D|----------x---2---7---7---7---7---7—--Play 3x----2---7---7—--7-----------|
A|----------x---2—--7—--7---5—--7—--7—-------------2—--7—--7—--5-----------|
E|>>>>>>>>--x---0—--5—--5-------5—--5--------------0—--5—--5---------------|
   Then first guitar comes in with this        Play this the 4th time
  
   Riff 3	      
e|----------x---0---5—--5---5---5—--5--------------------------------------|
B|----------x---0---5---5---6---5---5--------------------------------------|
G|----------x---1—--6---6---7—--6—--6--------------------------------------|
D|----------x---2---7---7---7---7---7----Play three times then stop--------|
A|----------x---2—--7—--7---5—--7—--7--------------------------------------|
E|>>>>>>>>--x---0—--5—--5-------5—--5--------------------------------------|
   Then the guitar comes in with this	
   
   Riff 4	      
e|----------x---0--x-x--5—--5---5--x-x--5—--5------------------------------|
B|----------x---0--x-x--5---5---6--x-x--5---5--------------0---5—--5—--6---|
G|----------x---1—-x-x--6---6---7—-x-x--6—--6—--Play 3x----1—--6---6---7---|
D|----------x---2--x-x--7--—7—--7--x-x--7---7--------------2---7--—7—--7---|
A|----------x---2—-x-x--7---7—--5—-x-x--7—--7--------------2—--7—--7—--5---|
E|>>>>>>>>--x---0—-x-x--5---5------x-x--5—--5--------------0—--5—--5-------|
   Then the guitar finally comes in with this	     Play this the 4th time

   Bridge		Guitars 1&2
e|-------------------------------------------------------------------------|
B|-------------------------------------------------------------------------|
G|-------------------------------------------------------------------------|
D|-12----12----12-----9-9-9-9-9-9-9-9-9-9-9-9-9-9-9-9-9-9-9-9\4------------|
A|-10-12-10-12-10-12--7-7-7-7-7-7-7-7-7-7-7-7-7-7-7-7-7-7-7-7\2------------|
E|----10----10----10-------------------------------------------------------|
					Gets Faster	

   Second Solo
e|-----------5/7-10-5/7-10-5/7-10-5/7-10-5/7-10-7-7-7b\5-3---5-3-----3-----|
B|-5-5-7-5-7-----------------------------------------------5-----5-3---5---|
G|-------------------------------------------------------------------------|
D|-------------------------------------------------------------------------|
A|-------------------------------------------------------------------------|
E|-------------------------------------------------------------------------|
	
e|-12-12-10/12-12-12-10/12-12-12-10/12-12-12-10/12-12-12-17-17-17-17-15--10|
B|-------------------------------------------------------------------------|
G|-------------------------------------------------------------------------|
D|-------------------------------------------------------------------------|
A|-------------------------------------------------------------------------|
E|-------------------------------------------------------------------------|

e|-7-10-12-12-10-----------------------------------------------------------|
B|---------------12-10\8-8h10-8h10-8h10-8h10-------------------------------|
G|-------------------------------------------9\7-4\2----------2—--2/4-4-4-4|
D|---------------------------------------------------5--2-2-5---5----------|
A|-------------------------------------------------------------------------|
E|-------------------------------------------------------------------------|

e|-------------------------------------------------------------------------|
B|-------------------------------5-5-5-5-5/7-7-7-7/8-8-8-8/10-10-10-10/12--|
G|-4-4-4-4-4----2-----2----------------------------------------------------|
D|-----------5b---2-5------------------------------------------------------|
A|----------------------2-0------------------------------------------------|
E|--------------------------3-0--------------------------------------------|

e|-------------------17b-18b-19b-20b-21b-22b-23----------------------------|
B|-12-12-15p12h15-17-------------------------------------------------------|
G|-------------------------------------------------------------------------|
D|-------------------------------------------------------------------------|
A|-------------------------------------------------------------------------|
E|------------------------------------------------->>>>>>>>>---------------|
								    Pick Slide

   Second Bridge		Guitars 1&2
e|-------------------------------------------------------------------------|
B|-------------------------------------------------------------------------|
G|-------------------------------------------------------------------------|
D|-12\7--12\7-—12\7-—12\7--12\7--7-7-7-------------------------------------|
A|-10\5--10\5--10\5--10\5--10\5--5-5-5---5-7-5-----------------------------|
E|---------------------------------------3-5-3-----------------------------|

   Third Solo	
e|-----------------------------------------------------------5/7-10-12~----|
B|------------------5-5-3/5-8-5-8-8-5-8-12~~~-8-5--5-5-7-5-7---------------|
G|-----------2/4-7---------------------------------------------------------|
D|-2-2-5-2-5---------------------------------------------------------------|
A|-------------------------------------------------------------------------|
E|-------------------------------------------------------------------------|

e|-----------------------------5/7-10-5/7-10-5/7-10-5/7-10-5/7-10-5/7-10---|
B|-3/5-8-3-5-5-5/8-10------------------------------------------------------|
G|-------------------------------------------------------------------------|
D|-------------------------------------------------------------------------|
A|-------------------------------------------------------------------------|
E|-------------------->>>>>>>>---------------------------------------------|
		     Pick Slide 		

e|-5/7-10-7-7-7b\5-3---5-3-----3----------------17-15--12-10-12-15-12-10-12|
B|-------------------5-----5-3---5-12-17-12-17~----------------------------|
G|-------------------------------------------------------------------------|
D|-------------------------------------------------------------------------|
A|-------------------------------------------------------------------------|
E|-------------------------------------------------------------------------|

e|-12-12\10-8----10-8---------------------------12-12/15b-10h12-10h12-10h12|
B|------------10------10-8—--10-8---10-8---10-8----------------------------|
G|-------------------------9------9------9---------------------------------|
D|-------------------------------------------------------------------------|
A|-------------------------------------------------------------------------|
E|-------------------------------------------------------------------------|

e|-10h12-10h12-10h12-10h12-10h12-10h12-10h12-10h12-10h12-10-15~~~~~~~~~----|
B|-------------------------------------------------------------------------|
G|-------------------------------------------------------------------------|
D|-------------------------------------------------------------------------|
A|-------------------------------------------------------------------------|
E|-------------------------------------------------------------------------|

e|-17\----------------------0----------------------------------------------|
B|-----15\------------------0----------------------------------------------|
G|---------15\-15\-12\4~~~--1----------------------------------------------|
D|--------------------------2----------------------------------------------|
A|--------------------------2----------------------------------------------|
E|--------------------------0----------------------------------------------|

| /  slide up			
| \  slide down
| h  hammer-on
| p  pull-off
| ~  vibrato
| +  harmonic
| x  Mute note
| b  bend 

This song is as close as your gonna get to perfect without asking the lead guitar player
of Silvertide himself because I slowed it down and figured it out so I have every note I
hope lol. If you have some corrections or questions  please email me at
MXZSXPRO98@AOL.COM, my name is Devin. Just listen to the song and get the rhythm right
for each lick. It is a very fun and easy song my band uses it a lot. HAVE FUN!!
==============================================================================
comments
We did not receive enough feedback on this tab! Please rate:
print report bad tab
1 2 3 4 5
1 comment total.
0 reply
Flyin Hawaiian wrote on January 30 2005, 12:00 am

nice job

I want to post or [tab]
guest
You may want to rate the tab now too:
select rating
Please do not post tabs as comments. Select "correction" instead!