Oops, an error
Loading. Please wait.

California Rain Bass Tab

version 1
version 1

Whole song

Interactive

244 views 1 this week
no commentswrite comment
1 2 3 4 5
please rate
add to favorites
launch autoscroll
font size
0
reset
guitar tuner
Tab Pro tools
  • play this tab
  • loop segment
  • change instrument
  • show fretboard
  • metronome
×
Best way to learn
"California Rain"
Autoscroll
slow
fast
+/-
esc
set tempo
stop
Contributor
Song: California Rain
Artist: Silvertide
Album: Show and Tell
Tabber: Adam

INTRO 0:08

G|---------------------------|
D|---------------------------|	x1
A|---3-6--------1-2-4--4-2-1-|
E|-4-----6--6-2--------------|

G|------------------------------------------------------|
D|--------4--4-4-4-4-4-4--------------------------------|
A|--3-6------------------4--4-4-4-4-4-4-6-6-6-6-6-6-6-6-|x1
E|4-----6-----------------------------------------------|


VERSE 0:20

G|---------------------------------|
D|-----------------4---------------|	x1
A|-------2---3---4----------2------|
E|-4-2-4---4---4------4-2-4---4-2--|

G|---------------------------------------------------|
D|-----------------------------------------------1-2-|	x3
A|--------2-4--4---4-2-4-2-----------------2---4-----|
E|-4--4--------------------4--4---2-4--2-4---4-------|

G|--------------------------------------------------|
D|----------------------------------------------1-2-|	x1
A|-3---3--3-4--4--4-4-4-4-----------------2---4-----|
E|------------------------4--4---2-4--2-4---4-------|


PRE CHORUS 0:56

G|-------------------------------------------------|
D|-------------------------------------------------|
A|-3--3--3-3-3-------------3--3--3-3-3-------------|
E|-------------4--4--4-4-4-------------4--4--4-4-4-|

G|--------------------------------------------------------|
D|--------------------------------------------------------|
A|-3--3--3-3-3-------------4--4--4-4-4-6--6-6-6-6-6-6-6-6-|
E|-------------4--4--4-4-4--------------------------------|


CHORUS 1:11

G|---------------------------|
D|---------------------------|	x3
A|---3-6--------1-2-4--4-2-1-|
E|-4-----6--6-2--------------|

G|------------------------------------------------------|
D|--------4--4-4-4-4-4-4--------------------------------|
A|--3-6------------------4--4-4-4-4-4-4-6-6-6-6-6-6-6-6-|x1
E|4-----6-----------------------------------------------|


VERSE 1:31

G|---------------------------------|
D|-----------------4---------------|	x1
A|-------2---3---4----------2------|
E|-4-2-4---4---4------4-2-4---4-2--|

G|---------------------------------------------------|
D|-----------------------------------------------1-2-|	x3
A|--------2-4--4---4-2-4-2-----------------2---4-----|
E|-4--4--------------------4--4---2-4--2-4---4-------|

G|--------------------------------------------------|
D|----------------------------------------------1-2-|	x1
A|-3---3--3-4--4--4-4-4-4-----------------2---4-----|
E|------------------------4--4---2-4--2-4---4-------|


PRE CHORUS 2:06

G|-------------------------------------------------|
D|-------------------------------------------------|
A|-3--3--3-3-3-------------3--3--3-3-3-------------|
E|-------------4--4--4-4-4-------------4--4--4-4-4-|

G|--------------------------------------------------------|
D|--------------------------------------------------------|
A|-3--3--3-3-3-------------4--4--4-4-4-6--6-6-6-6-6-6-6-6-|
E|-------------4--4--4-4-4--------------------------------|


CHORUS 2:22

G|---------------------------|
D|---------------------------|	x3
A|---3-6--------1-2-4--4-2-1-|
E|-4-----6--6-2--------------|

G|------------------------------------------------------|
D|--------4--4-4-4-4-4-4--------------------------------|
A|--3-6------------------4--4-4-4-4-4-4-6-6-6-6-6-6-6-6-|
E|4-----6-----------------------------------------------|

G|------|
D|------|	x1
A|-6----|
E|------|


BRIDGE/SOLO 2:43

G|---------------------------------|
D|-6---676-5---565-4---454-3---343-|
A|---------------------------------|
E|---------------------------------|

G|--------------------------------------------------------|
D|-2--2--2--2--2--2--2--2-1-1-1-1-1-1-1-1-1-1-1-1-1-1-1-1-|
A|--------------------------------------------------------|
E|--------------------------------------------------------|

G|--------------------------------|
D|-6--7-6--4--5-4--3--4-3--2--3-2-|	x3
A|--------------------------------|
E|--------------------------------|

G|--------------------------------|
D|-1-1-1-1-1-1-1-1--1-1-1-1-1-1-1-|	
A|--------------------------------|
E|--------------------------------|


CHORUS/OUTRO 3:14

G|---------------------------|
D|---------------------------|	x3
A|---3-6--------1-2-4--4-2-1-|
E|-4-----6--6-2--------------|
G|---------------------------|
D|---------------------------|	x1
A|-3--3--3-3-3-4--4-4--4-4-4-|
E|---------------------------|

G|---------------------------|
D|---------------------------|	x3
A|---3-6--------1-2-4--4-2-1-|
E|-4-----6--6-2--------------|

G|---------------------------|
D|---------------------------|	x1
A|-3--3--3-3-3--4------------|
E|---------------------------|

comments
We did not receive enough feedback on this tab! Please rate:
print report bad tab
1 2 3 4 5
I want to post or [tab]
guest
You may want to rate the tab now too:
select rating
Please do not post tabs as comments. Select "correction" instead!