Oops, an error
Loading. Please wait.

Devils Daughter Tab

6,012 views 3 this week
1 commentread comment
1 2 3 4 5
accurate
x 6
add to favorites
launch autoscroll
font size
0
reset
how to read this tab
guitar tuner
Autoscroll
slow
fast
+/-
esc
set tempo
stop
Help us to improve Ultimate-Guitar.com Take our survey!
×
Author
Difficulty
intermediate
-------------------------------------------------------------------------------
                         DEVIL'S DAUGHTER - Silvertide
-------------------------------------------------------------------------------
Tabbed by: Marc Dunham
Email: cram242@mtd-web.com

Tuning: 1/2 step down

* I spent quite a while on this, my first full tab with "complicated" solos. I think most of it is right. *
* Please send comments.                                                                                   *


[0:00]-[0:16]
eb|-------------------------------------------------------------------------------------------------|
Bb|-------------------------------------------------------------------------------------------------|
Gb|----------6---------9---------------------------------6---------9--------------------------------|
Db|-7/6/4-/8---7p6/4---9---4--x-7--x-9--x-4-----7/6/4-/8---7p6/4---9---4--x-7-7-x-9-9-x-11----9^~~~-|
Ab|-7/6/4------------7---6-4--x-7--x-9--x-4-----7/6/4------------7---6-4--x-7-7-x-9-9-x-11----------|
Eb|-5/4/2---------------------x-5--x-7--x-2-----5/4/2---------------------x-5-5-x-7-7-x-9-----------|

[0:16]-[0:50]
"Hell of an angel..."                                   "I'm walking up the stairs..."
eb|---------------------------------------------|  |---------------------------------------------------------------------------------|
Bb|---------------------------------------------|  |---------------------------------------------------------------------------------|
Gb|--------------------x-x-4-2-4---x-2--2--4--4-|  |-2---------------2-2-2-2-2-2-2-2-4-4-4-4-4-4-4-4-6-6-6-6-6-6-6-6-----------------|
Db|-x-4-2-4----2-2-2---x-x-4-2-4---x-2--2--4--4-|3x|-2-4-4-4-4-4-4-4-2-2-2-2-2-2-2-2-4-4-4-4-4-4-4-4-6-6-6-6-6-6-6-6---7^7-4-6^6-2-4-|
Ab|-x-4-2-4----2-2-2---x-x-2-0-2---x-0--0--2--2-|  |-0-4-4-4-4-4-4-4-0-0-0-0-0-0-0-0-2-2-2-2-2-2-2-2-4-4-4-4-4-4-4-4-----------------|
Eb|-x-2-0-2----0-0-0----------------------------|  |---2-2-2-2-2-2-2-----------------------------------------------------------------|

[0:50]-[1:05] (hold all chords)
"I went to bed..."
eb|-------------------------------------------------------------|
Bb|-------------------------------------------------------------|
Gb|--------9--8---4------9--2-3-4-------------9--8---9/---9/-4/-|
Db|-4------9--8---4------9--2-3-4------4------9--8---9/---9/-4/-|
Ab|-4------7--6---2------7--0-1-2------4------7--6---7/---7/-2/-|
Eb|-2----------------------------------2------------------------|

[1:05]-[1:11]
eb|------------------------------------|
Bb|------------------------------------|
Gb|----------6---------9---------------|
Db|-7/6/4-/8---7p6/4---9---4----7----9-|
Ab|-7/6/4------------7---6-4----7----9-|
Eb|-5/4/2-----------------------5----7-|

[1:11]-[1:45]
"Like a knife at my throat..."                          "I'm walking up the stairs..."
eb|---------------------------------------------|  |---------------------------------------------------------------------------------|
Bb|---------------------------------------------|  |---------------------------------------------------------------------------------|
Gb|--------------------x-x-4-2-4---x-2--2--4--4-|  |-2---------------2-2-2-2-2-2-2-2-4-4-4-4-4-4-4-4-6-6-6-6-6-6-6-6-----------------|
Db|-x-4-2-4----2-2-2---x-x-4-2-4---x-2--2--4--4-|3x|-2-4-4-4-4-4-4-4-2-2-2-2-2-2-2-2-4-4-4-4-4-4-4-4-6-6-6-6-6-6-6-6---7^7-4-6^6-2-4-|
Ab|-x-4-2-4----2-2-2---x-x-2-0-2---x-0--0--2--2-|  |-0-4-4-4-4-4-4-4-0-0-0-0-0-0-0-0-2-2-2-2-2-2-2-2-4-4-4-4-4-4-4-4-----------------|
Eb|-x-2-0-2----0-0-0----------------------------|  |---2-2-2-2-2-2-2-----------------------------------------------------------------|

[1:45]-[2:01] (hold all chords)
"I went to bed..."
eb|--------------------------------------------------------------------------------|
Bb|--------------------------------------------------------------------------------|
Gb|--------9--8---4------9--2-3-4-----------9--8---9-9-9-9-9-9-9-9-4-4-4-4-4-4-4-4-|
Db|-4------9--8---4------9--2-3-4------4----9--8---9-9-9-9-9-9-9-9-4-4-4-4-4-4-4-4-|
Ab|-4------7--6---2------7--0-1-2------4----7--6---7-7-7-7-7-7-7-7-2-2-2-2-2-2-2-2-|
Eb|-2----------------------------------2-------------------------------------------|

[2:01]-[2:17] (with wah)
       eb|-------------------------------------------------------------------------------------------------|
Lead   Bb|--------------------------15~~~-----------17^19^17-15-------------------------------13~~~~~-13~/-|
       Gb|----11~-12-11-12^14^12-11-------11~-12-11----------------------10-11-10-12^14^12-10--------------|
       Db|------------------------------------------------------11h12~~~-----------------------------------|
       Ab|-------------------------------------------------------------------------------------------------|
       Eb|-------------------------------------------------------------------------------------------------|

       eb|-------------------------------------------------------------------------------------------------|
Rhythm Bb|-------------------------------------------------------------------------------------------------|
       Gb|-11----------------------------------------------------8/9--------------------------10/11--------|
       Db|-11-(hold)---------------------------------------------8/9-(hold)-------------------10/11--------|
       Ab|-9-----------------------------------------------------6/7--------------------------8-/9---------|
       Eb|-------------------------------------------------------------------------------------------------|

[2:17]-[2:32]
       eb|--------------------------------------------------------------------------------------9^12-18/-|
Lead   Bb|----------------------------------------------------------------------------7-9----------------|
       Gb|----------------------------------7/9~~~~~~~---11~---11~---11~---11~----6/8-----6/8~~----------|
       Db|------------9^11~~~~------7^9---------------------11~---11~---11~---11~------------------------|
       Ab|-7~~~~------------------7-----7~~--------------------------------------------------------------|
       Eb|-----------------------------------------------------------------------------------------------|

       eb|-----------------------------------------------------------------------------------------------|
Rhythm Bb|-----------------------------------------------------------------------------------------------|
       Gb|--------------------x-x-4-2-4---x-2-----4--4------------------------x-x-4-2-4---x-2-----4--4---|
       Db|-x-4-2-4----2-2-2---x-x-4-2-4---x-2-----4--4-----x-4-2-4----2-2-2---x-x-4-2-4---x-2-----4--4---|
       Ab|-x-4-2-4----2-2-2---x-x-2-0-2---x-0-----2--2-----x-4-2-4----2-2-2---x-x-2-0-2---x-0-----2--2---|
       Eb|-x-2-0-2----0-0-0--------------------------------x-2-0-2----0-0-0------------------------------|



[2:32]-[2:37]
       eb|----14-14----14-14----14-14----14-14-17^17-14h17p14----14------------------------------------------|
Lead   Bb|-17^------17^------17^------17^----------------------17----17-17^~~---15h18p15---------------------|
       Gb|-------------------------------------------------------------------------------17-15----15^--17^~~-|
       Db|-------------------------------------------------------------------------------------17------------|
       Ab|---------------------------------------------------------------------------------------------------|
       Eb|---------------------------------------------------------------------------------------------------|

          (same timing as before, spread out to coincide with solo above)
       eb|---------------------------------------------------------------------------------------------------|
Rhythm Bb|---------------------------------------------------------------------------------------------------|
       Gb|------------------------------------------------------------------x-x-4------2------4----x-2-----4-|
       Db|-4------2------4---------------------2------2------2--------------x-x-4------2------4----x-2-----4-|
       Ab|-4------2------4---------------------2------2------2--------------x-x-2------0------2----x-0-----2-|
       Eb|-2------0------2---------------------0------0------0-----------------------------------------------|

[2:41]-[2:51]
       eb|--------------------------------------------------------------------------------|
Lead   Bb|----------------10~~~~~~~~~~~~~~13~~~~~~~~~~~~~~15~~~~~~~~~~~~~~----------------|
       Gb|-11~~~~~~~~~~~~~----------------------------------------------------------------|
       Db|--------------------------------------------------------------------------------|
       Ab|--------------------------------------------------------------------------------|
       Eb|--------------------------------------------------------------------------------|

       eb|--------------------------------------------------------------------------------|
Rhythm Bb|--------------------------------------------------------------------------------|
       Gb|-----------------2-2-2-2-2-2-2-2-4-4-4-4-4-4-4-4-6-6-6-6-6-6-6-6----------------|
       Db|-4-4-4-4-4-4-4-4-2-2-2-2-2-2-2-2-4-4-4-4-4-4-4-4-6-6-6-6-6-6-6-6---7^7-4-6-2----|
       Ab|-4-4-4-4-4-4-4-4-0-0-0-0-0-0-0-0-2-2-2-2-2-2-2-2-4-4-4-4-4-4-4-4----------------|
       Eb|-2-2-2-2-2-2-2-2----------------------------------------------------------------|

[2:51]-[3:07]
"I went to bed..."
eb|-----------------------------------------------------------------------------------------|
Bb|-----------------------------------------------------------------------------------------|
Gb|--------9--8---4------9--2-3-4-------------9--8---9-9-9-9-9-9-9-9-4-4-4-4-4-4-4-4--------|
Db|-4------9--8---4------9--2-3-4------4------9--8---9-9-9-9-9-9-9-9-4-4-4-4-4-4-4-4-(hold)-|
Ab|-4------7--6---2------7--0-1-2------4------7--6---7-7-7-7-7-7-7-7-2-2-2-2-2-2-2-2--------|
Eb|-2----------------------------------2----------------------------------------------------|

[3:07]-[3:22]
"bed..."
       eb|-15~~~~~~~~~13------------------------------------------------------------|
Lead   Bb|---------------13---------------------------------------------------------|
       Gb|------------------15~~~19p17p15-17p15-19~~~~----13----13------------------|
       Db|---------------------------------------------15----15----15-12~~~~~-------|
       Ab|--------------------------------------------------------------------------|
       Eb|--------------------------------------------------------------------------|

       eb|--------------------------------------------------------------------------|
Rhythm Bb|--------------------------------------------------------------------------|
       Gb|---------9---8----4-------9---2--3--4---------------9---8----9/----9/--4/-|
       Db|-4-------9---8----4-------9---2--3--4-------4-------9---8----9/----9/--4/-|
       Ab|-4-------7---6----2-------7---0--1--2-------4-------7---6----7/----7/--2/-|
       Eb|-2------------------------------------------2-----------------------------|

[3:22]-end
eb|-------------------------------------------------------------------------------------------12^14~~~~-|
Bb|-----------------------------------------------------------------------------------------------------|
Gb|-------------------------------------------------------------6-----4---9---------8~-6~---------------|
Db|-7^7-4-6^6-2-4----7^7-4-6^6-2~~----7^7-4-6^6-2-4-4---2-4--/8---7p6/4---9---------8~-6~---------------|
Ab|---------------------------------------------------4-----------------7---6-4~~~~-6~-4~---------------|
Eb|-----------------------------------------------------------------------------------------------------|


| /  slide up
| \  slide down
| h  hammer-on
| p  pull-off
| ~  vibrato
| +  harmonic
| x  Mute note
===============================================================================
Suggest correction
comments
print report bad tab
1 comment total.
0 reply
AC/DC10 30 wrote on May 25 2006, 07:14 pm

hey good tab at the end of the intro it should be
D|-11-11-------------------9b-|
A|-11-11-13-11-13-11-13-11----|
E|-9--9--9--9--9--9--9--9-----|

guest
You may want to rate the tab now too:
select rating
Please do not post tabs as comments. Select "correction" instead!