Oops, an error
Loading. Please wait.

Foxhole Jc Tab

1,354 views 1 this week
no commentswrite comment
1 2 3 4 5
1 last vote to show rating
add to favorites
launch autoscroll
font size
0
reset
how to read this tab
guitar tuner
Autoscroll
slow
fast
+/-
esc
set tempo
stop
Help us to improve Ultimate-Guitar.com Take our survey!
×
Difficulty
intermediate
every string is tuned down a half step
ex: Eb Ab Db Gb Bb Eb

the simple chords that the song plays with are Am:577555  C:35553   G:355433
D:57775

H=hammer on    /=slide     V=vibrate

/=slide down rest of neck

E--------5--------5-----5---------(5)------|
B--------5--------5-------5----------------|
G-------------------4/5------4V------------|
D-5H7------5H7-----------------------------|
A-----7--------7---------------------------|
E------------------------------------------|
"brothers, sisters, the war is coming...

E--5-/-5/-5/-5/----------------3------------|
B--5-/-5/-5/-5/----5-----------3------------|
G--5-/-5/-5/-5/------5---------5------------|
D--6-/-6/-6/-6/-----------5-----------------|
A--------------------3--------5-------------|
E-----------------------------3-------------|
"get down, down, down ,down, we got one unit lost and the others too proud...


         Am            C      G
You're a Foxhole jesus christ anyone can be
               D
a hero if they dont think twice
Am                C     G
You foxhole jesus christ don't be a martyr

man

E------------------------------------------|
B------------------------------------------|
G------------------------------------------|
D--7-5-------------------------------------|
A------7-5---------------------------------|
E----------3-------------------------------|


the last part is the part thats slower and that's just  the Am:x02210    Dm:xx0231
G:320003

Am                   Dm         G
E-------------------------1---------3------|
B-----1--------1--------3---3-----0---0----|
G---2---2----2---2----2--------------------|
D-2--------2-------------------------------|
A------------------------------------------|
E-------------------------------3----------|
"War, war what is it for...

That's pretty much the song listen to the song to get the timing perfect and sry but i 
figure out the solos

rock on
Suggest correction
Give kudos to tab author, rate the tab!
1 2 3 4 5
comments
print report bad tab
guest
You may want to rate the tab now too:
select rating
Wanna post a correction for this tab? Suggest correction