Oops, an error
Loading. Please wait.

Heartstrong Tab

version 2
version 2

Whole song

1,794 views 1 this week
no commentswrite comment
1 2 3 4 5
2 more votes to show rating
add to favorites
launch autoscroll
font size
0
reset
how to read this tab
guitar tuner
Autoscroll
slow
fast
+/-
esc
set tempo
stop
Help us to improve Ultimate-Guitar.com Take our survey!
×
Song: Heartstrong
Band: Silvertide
Album: Dave Ivory Demo
Tuning: Standard
Tabbed by: J.Griff (artificial_inside@hotmail.com)
Comments: I remember to a concert that featured Silvertide, Future Leaders
of the World and Shinedown. I mostly went for Shinedown and I had never
heard of the other bands before. After that concert, I have been
listening to Silvertide ever since. I wanted to point out that this is the
Dave Ivory Demo version and not the Show and Tell version. I prefer this
version over the other because I feel that this one has more meaning. 
I know there's already a tab for this, but the person was missing some
things and some of it was incorrect, so I decided to tab this song out. 
You can play this version in half-step tuning, if you wish. 
They both sound the same.

If there's any corrections, let me know. Please rate and comment.

=================
Guitar Legend:
p - palm mute
=================


Intro:

e|------------0---------------0----------------0--------0--|
B|--------0-----0----------0----0----------0-----0------0--|
G|------2---------2------2--------2------2---------2----2--|
D|----2----------------2---------------2----------------2--|
A|--0----------------0---------------0------------------0--|
E|---------------------------------------------------------|


Chorus:

e|--0--0-0-0-0--0-0-0-0--0-0--0--0-0-0-0--0-0-0-0--0-0--|
B|--0--0-0-0-0--0-0-0-0--0-0--0--0-0-0-0--0-0-0-0--0-0--|
G|--1--1-1-1-1--1-1-1-1--1-1--6--6-6-6-6--6-6-6-6--6-6--|
D|--2--2-2-2-2--2-2-2-2--2-2--6--6-6-6-6--6-6-6-6--6-6--|
A|--2--2-2-2-2--2-2-2-2--2-2--4--4-4-4-4--4-4-4-4--4-4--|
E|------------------------------------------------------|

e|--0--0-0-0-0--0-0-0-0--0-0--0--0-0-0-0--0-0-0-0--0-0--|
B|--0--0-0-0-0--0-0-0-0--0-0--0--0-0-0-0--0-0-0-0--0-0--|
G|--4--4-4-4-4--4-4-4-4--4-4--2--2-2-2-2--2-2-2-2--2-2--|
D|--4--4-4-4-4--4-4-4-4--4-4--2--2-2-2-2--2-2-2-2--2-2--|
A|--2--2-2-2-2--2-2-2-2--2-2--0--0-0-0-0--0-0-0-0--0-0--|
E|------------------------------------------------------|

e|--0--0-0-0-0--0-0-0-0--0-0--0--0-0-0-0--0-0-0-0--0-0--|
B|--0--0-0-0-0--0-0-0-0--0-0--0--0-0-0-0--0-0-0-0--0-0--|
G|--1--1-1-1-1--1-1-1-1--1-1--6--6-6-6-6--6-6-6-6--6-6--|
D|--2--2-2-2-2--2-2-2-2--2-2--6--6-6-6-6--6-6-6-6--6-6--|
A|--2--2-2-2-2--2-2-2-2--2-2--4--4-4-4-4--4-4-4-4--4-4--|
E|------------------------------------------------------|

e|--0--0-0-0-0--0-0-0-0--0-0--0--0-0-0-0--0-0-0-0--0-0--|
B|--0--0-0-0-0--0-0-0-0--0-0--0--0-0-0-0--0-0-0-0--0-0--|
G|--4--4-4-4-4--4-4-4-4--4-4--2--2-2-2-2--2-2-2-2--2-2--|
D|--4--4-4-4-4--4-4-4-4--4-4--2--2-2-2-2--2-2-2-2--2-2--|
A|--2--2-2-2-2--2-2-2-2--2-2--0--0-0-0-0--0-0-0-0--0-0--|
E|------------------------------------------------------|

e|--0--0-0-0-0--|
B|--0--0-0-0-0--|
G|--2--2-2-2-2--|
D|--2--2-2-2-2--|
A|--0--0-0-0-0--|
E|--------------|


Verse:

e|--0--0-0-0-0--0-0-0-0--0-0--0--0-0-0-0--0-0-0-0--0-0--|
B|--0--0-0-0-0--0-0-0-0--0-0--0--0-0-0-0--0-0-0-0--0-0--|
G|--1--1-1-1-1--1-1-1-1--1-1--2--2-2-2-2--2-2-2-2--2-2--|
D|--2--2-2-2-2--2-2-2-2--2-2--4--4-4-4-4--4-4-4-4--4-4--|
A|--2--2-2-2-2--2-2-2-2--2-2--4--4-4-4-4--4-4-4-4--4-4--|
E|------------------------------------------------------|

e|--0--0-0-0-0--0-0-0-0--0-0--0--0-0-0-0--0-0-0-0--0-0--|
B|--0--0-0-0-0--0-0-0-0--0-0--0--0-0-0-0--0-0-0-0--0-0--|
G|--4--4-4-4-4--4-4-4-4--4-4--2--2-2-2-2--2-2-2-2--2-2--|
D|--6--6-6-6-6--6-6-6-6--6-6--2--2-2-2-2--2-2-2-2--2-2--|
A|--6--6-6-6-6--6-6-6-6--6-6--0--0-0-0-0--0-0-0-0--0-0--|
E|------------------------------------------------------|

e|--0--0-0-0-0--0-0-0-0--0-0--0--0-0-0-0--0-0-0-0--0-0--|
B|--0--0-0-0-0--0-0-0-0--0-0--0--0-0-0-0--0-0-0-0--0-0--|
G|--1--1-1-1-1--1-1-1-1--1-1--2--2-2-2-2--2-2-2-2--2-2--|
D|--2--2-2-2-2--2-2-2-2--2-2--4--4-4-4-4--4-4-4-4--4-4--|
A|--2--2-2-2-2--2-2-2-2--2-2--4--4-4-4-4--4-4-4-4--4-4--|
E|------------------------------------------------------|

e|--0--0-0-0-0--0-0-0-0--0-0--0--0-0-0-0--0-0-0-0--0-0--|
B|--0--0-0-0-0--0-0-0-0--0-0--0--0-0-0-0--0-0-0-0--0-0--|
G|--4--4-4-4-4--4-4-4-4--4-4--2--2-2-2-2--2-2-2-2--2-2--|
D|--6--6-6-6-6--6-6-6-6--6-6--2--2-2-2-2--2-2-2-2--2-2--|
A|--6--6-6-6-6--6-6-6-6--6-6--0--0-0-0-0--0-0-0-0--0-0--|
E|------------------------------------------------------|

e|--0--0-0-0-0--0-0-0-0--0-0--0--0-0-0-0--0-0-0-0--0-0--|
B|--0--0-0-0-0--0-0-0-0--0-0--0--0-0-0-0--0-0-0-0--0-0--|
G|--1--1-1-1-1--1-1-1-1--1-1--2--2-2-2-2--2-2-2-2--2-2--|
D|--2--2-2-2-2--2-2-2-2--2-2--4--4-4-4-4--4-4-4-4--4-4--|
A|--2--2-2-2-2--2-2-2-2--2-2--4--4-4-4-4--4-4-4-4--4-4--|
E|------------------------------------------------------|

e|--0--0-0-0-0--0-0-0-0--0-0--0--0-0-0-0--0-0-0-0--0-0--|
B|--0--0-0-0-0--0-0-0-0--0-0--0--0-0-0-0--0-0-0-0--0-0--|
G|--4--4-4-4-4--4-4-4-4--4-4--2--2-2-2-2--2-2-2-2--2-2--|
D|--6--6-6-6-6--6-6-6-6--6-6--2--2-2-2-2--2-2-2-2--2-2--|
A|--6--6-6-6-6--6-6-6-6--6-6--0--0-0-0-0--0-0-0-0--0-0--|
E|------------------------------------------------------|

e|--0--0-0-0-0--0-0-0-0--0-0--0--0-0-0-0--0-0-0-0--0-0--|
B|--0--0-0-0-0--0-0-0-0--0-0--0--0-0-0-0--0-0-0-0--0-0--|
G|--1--1-1-1-1--1-1-1-1--1-1--2--2-2-2-2--2-2-2-2--2-2--|
D|--2--2-2-2-2--2-2-2-2--2-2--4--4-4-4-4--4-4-4-4--4-4--|
A|--2--2-2-2-2--2-2-2-2--2-2--4--4-4-4-4--4-4-4-4--4-4--|
E|------------------------------------------------------|

e|--0--0-0-0-0--0-0-0-0--0-0--0--0-0-0-0--0-0-0-0--0-0--|
B|--0--0-0-0-0--0-0-0-0--0-0--0--0-0-0-0--0-0-0-0--0-0--|
G|--4--4-4-4-4--4-4-4-4--4-4--2--2-2-2-2--2-2-2-2--2-2--|
D|--6--6-6-6-6--6-6-6-6--6-6--2--2-2-2-2--2-2-2-2--2-2--|
A|--6--6-6-6-6--6-6-6-6--6-6--0--0-0-0-0--0-0-0-0--0-0--|
E|------------------------------------------------------|

e|--0--0-0-0-0--0-0-0-0--0-0--0--0-0-0-0--0-0-0-0--0-0--|
B|--0--0-0-0-0--0-0-0-0--0-0--0--0-0-0-0--0-0-0-0--0-0--|
G|--1--1-1-1-1--1-1-1-1--1-1--2--2-2-2-2--2-2-2-2--2-2--|
D|--2--2-2-2-2--2-2-2-2--2-2--4--4-4-4-4--4-4-4-4--4-4--|
A|--2--2-2-2-2--2-2-2-2--2-2--4--4-4-4-4--4-4-4-4--4-4--|
E|------------------------------------------------------|

e|--0--0-0-0-0--0-0-0-0--0-0--0--0-0-0-0--0-0-0-0--0-0--|
B|--0--0-0-0-0--0-0-0-0--0-0--0--0-0-0-0--0-0-0-0--0-0--|
G|--4--4-4-4-4--4-4-4-4--4-4--2--2-2-2-2--2-2-2-2--2-2--|
D|--6--6-6-6-6--6-6-6-6--6-6--2--2-2-2-2--2-2-2-2--2-2--|
A|--6--6-6-6-6--6-6-6-6--6-6--0--0-0-0-0--0-0-0-0--0-0--|
E|------------------------------------------------------|

e|--0--0-0-0-0--|
B|--0--0-0-0-0--|
G|--2--2-2-2-2--|
D|--2--2-2-2-2--|
A|--0--0-0-0-0--|
E|--------------|


Chorus:

e|--0--0-0-0-0--0-0-0-0--0-0--0--0-0-0-0--0-0-0-0--0-0--|
B|--0--0-0-0-0--0-0-0-0--0-0--0--0-0-0-0--0-0-0-0--0-0--|
G|--1--1-1-1-1--1-1-1-1--1-1--6--6-6-6-6--6-6-6-6--6-6--|
D|--2--2-2-2-2--2-2-2-2--2-2--6--6-6-6-6--6-6-6-6--6-6--|
A|--2--2-2-2-2--2-2-2-2--2-2--4--4-4-4-4--4-4-4-4--4-4--|
E|------------------------------------------------------|

e|--0--0-0-0-0--0-0-0-0--0-0--0--0-0-0-0--0-0-0-0--0-0--|
B|--0--0-0-0-0--0-0-0-0--0-0--0--0-0-0-0--0-0-0-0--0-0--|
G|--4--4-4-4-4--4-4-4-4--4-4--2--2-2-2-2--2-2-2-2--2-2--|
D|--4--4-4-4-4--4-4-4-4--4-4--2--2-2-2-2--2-2-2-2--2-2--|
A|--2--2-2-2-2--2-2-2-2--2-2--0--0-0-0-0--0-0-0-0--0-0--|
E|------------------------------------------------------|

e|--0--0-0-0-0--0-0-0-0--0-0--0--0-0-0-0--0-0-0-0--0-0--|
B|--0--0-0-0-0--0-0-0-0--0-0--0--0-0-0-0--0-0-0-0--0-0--|
G|--1--1-1-1-1--1-1-1-1--1-1--6--6-6-6-6--6-6-6-6--6-6--|
D|--2--2-2-2-2--2-2-2-2--2-2--6--6-6-6-6--6-6-6-6--6-6--|
A|--2--2-2-2-2--2-2-2-2--2-2--4--4-4-4-4--4-4-4-4--4-4--|
E|------------------------------------------------------|

e|--0--0-0-0-0--0-0-0-0--0-0--0--0-0-0-0--0-0-0-0--0-0--|
B|--0--0-0-0-0--0-0-0-0--0-0--0--0-0-0-0--0-0-0-0--0-0--|
G|--4--4-4-4-4--4-4-4-4--4-4--2--2-2-2-2--2-2-2-2--2-2--|
D|--4--4-4-4-4--4-4-4-4--4-4--2--2-2-2-2--2-2-2-2--2-2--|
A|--2--2-2-2-2--2-2-2-2--2-2--0--0-0-0-0--0-0-0-0--0-0--|
E|------------------------------------------------------|

e|--0--0-0-0-0--|
B|--0--0-0-0-0--|
G|--2--2-2-2-2--|
D|--2--2-2-2-2--|
A|--0--0-0-0-0--|
E|--------------|


Verse:

e|--0--0-0-0-0--0-0-0-0--0-0--0--0-0-0-0--0-0-0-0--0-0--|
B|--0--0-0-0-0--0-0-0-0--0-0--0--0-0-0-0--0-0-0-0--0-0--|
G|--1--1-1-1-1--1-1-1-1--1-1--2--2-2-2-2--2-2-2-2--2-2--|
D|--2--2-2-2-2--2-2-2-2--2-2--4--4-4-4-4--4-4-4-4--4-4--|
A|--2--2-2-2-2--2-2-2-2--2-2--4--4-4-4-4--4-4-4-4--4-4--|
E|------------------------------------------------------|

e|--0--0-0-0-0--0-0-0-0--0-0--0--0-0-0-0--0-0-0-0--0-0--|
B|--0--0-0-0-0--0-0-0-0--0-0--0--0-0-0-0--0-0-0-0--0-0--|
G|--4--4-4-4-4--4-4-4-4--4-4--2--2-2-2-2--2-2-2-2--2-2--|
D|--6--6-6-6-6--6-6-6-6--6-6--2--2-2-2-2--2-2-2-2--2-2--|
A|--6--6-6-6-6--6-6-6-6--6-6--0--0-0-0-0--0-0-0-0--0-0--|
E|------------------------------------------------------|

e|--0--0-0-0-0--0-0-0-0--0-0--0--0-0-0-0--0-0-0-0--0-0--|
B|--0--0-0-0-0--0-0-0-0--0-0--0--0-0-0-0--0-0-0-0--0-0--|
G|--1--1-1-1-1--1-1-1-1--1-1--2--2-2-2-2--2-2-2-2--2-2--|
D|--2--2-2-2-2--2-2-2-2--2-2--4--4-4-4-4--4-4-4-4--4-4--|
A|--2--2-2-2-2--2-2-2-2--2-2--4--4-4-4-4--4-4-4-4--4-4--|
E|------------------------------------------------------|

e|--0--0-0-0-0--0-0-0-0--0-0--0--0-0-0-0--0-0-0-0--0-0--|
B|--0--0-0-0-0--0-0-0-0--0-0--0--0-0-0-0--0-0-0-0--0-0--|
G|--4--4-4-4-4--4-4-4-4--4-4--2--2-2-2-2--2-2-2-2--2-2--|
D|--6--6-6-6-6--6-6-6-6--6-6--2--2-2-2-2--2-2-2-2--2-2--|
A|--6--6-6-6-6--6-6-6-6--6-6--0--0-0-0-0--0-0-0-0--0-0--|
E|------------------------------------------------------|

e|--0--0-0-0-0--0-0-0-0--0-0--0--0-0-0-0--0-0-0-0--0-0--|
B|--0--0-0-0-0--0-0-0-0--0-0--0--0-0-0-0--0-0-0-0--0-0--|
G|--1--1-1-1-1--1-1-1-1--1-1--2--2-2-2-2--2-2-2-2--2-2--|
D|--2--2-2-2-2--2-2-2-2--2-2--4--4-4-4-4--4-4-4-4--4-4--|
A|--2--2-2-2-2--2-2-2-2--2-2--4--4-4-4-4--4-4-4-4--4-4--|
E|------------------------------------------------------|

e|--0--0-0-0-0--0-0-0-0--0-0--0--0-0-0-0--0-0-0-0--0-0--|
B|--0--0-0-0-0--0-0-0-0--0-0--0--0-0-0-0--0-0-0-0--0-0--|
G|--4--4-4-4-4--4-4-4-4--4-4--2--2-2-2-2--2-2-2-2--2-2--|
D|--6--6-6-6-6--6-6-6-6--6-6--2--2-2-2-2--2-2-2-2--2-2--|
A|--6--6-6-6-6--6-6-6-6--6-6--0--0-0-0-0--0-0-0-0--0-0--|
E|------------------------------------------------------|

e|--0--0-0-0-0--0-0-0-0--0-0--0--0-0-0-0--0-0-0-0--0-0--|
B|--0--0-0-0-0--0-0-0-0--0-0--0--0-0-0-0--0-0-0-0--0-0--|
G|--1--1-1-1-1--1-1-1-1--1-1--2--2-2-2-2--2-2-2-2--2-2--|
D|--2--2-2-2-2--2-2-2-2--2-2--4--4-4-4-4--4-4-4-4--4-4--|
A|--2--2-2-2-2--2-2-2-2--2-2--4--4-4-4-4--4-4-4-4--4-4--|
E|------------------------------------------------------|

e|--0--0-0-0-0--0-0-0-0--0-0--0--0-0-0-0--0-0-0-0--0-0--|
B|--0--0-0-0-0--0-0-0-0--0-0--0--0-0-0-0--0-0-0-0--0-0--|
G|--4--4-4-4-4--4-4-4-4--4-4--2--2-2-2-2--2-2-2-2--2-2--|
D|--6--6-6-6-6--6-6-6-6--6-6--2--2-2-2-2--2-2-2-2--2-2--|
A|--6--6-6-6-6--6-6-6-6--6-6--0--0-0-0-0--0-0-0-0--0-0--|
E|------------------------------------------------------|

e|--0--0-0-0-0--0-0-0-0--0-0--0--0-0-0-0--0-0-0-0--0-0--|
B|--0--0-0-0-0--0-0-0-0--0-0--0--0-0-0-0--0-0-0-0--0-0--|
G|--1--1-1-1-1--1-1-1-1--1-1--2--2-2-2-2--2-2-2-2--2-2--|
D|--2--2-2-2-2--2-2-2-2--2-2--4--4-4-4-4--4-4-4-4--4-4--|
A|--2--2-2-2-2--2-2-2-2--2-2--4--4-4-4-4--4-4-4-4--4-4--|
E|------------------------------------------------------|

e|--0--0-0-0-0--0-0-0-0--0-0--0--0-0-0-0--0-0-0-0--0-0--|
B|--0--0-0-0-0--0-0-0-0--0-0--0--0-0-0-0--0-0-0-0--0-0--|
G|--4--4-4-4-4--4-4-4-4--4-4--2--2-2-2-2--2-2-2-2--2-2--|
D|--6--6-6-6-6--6-6-6-6--6-6--2--2-2-2-2--2-2-2-2--2-2--|
A|--6--6-6-6-6--6-6-6-6--6-6--0--0-0-0-0--0-0-0-0--0-0--|
E|------------------------------------------------------|

e|--0--0-0-0-0--|
B|--0--0-0-0-0--|
G|--2--2-2-2-2--|
D|--2--2-2-2-2--|
A|--0--0-0-0-0--|
E|--------------|


Chorus:

e|--0--0-0-0-0--0-0-0-0--0-0--0--0-0-0-0--0-0-0-0--0-0--|
B|--0--0-0-0-0--0-0-0-0--0-0--0--0-0-0-0--0-0-0-0--0-0--|
G|--1--1-1-1-1--1-1-1-1--1-1--6--6-6-6-6--6-6-6-6--6-6--|
D|--2--2-2-2-2--2-2-2-2--2-2--6--6-6-6-6--6-6-6-6--6-6--|
A|--2--2-2-2-2--2-2-2-2--2-2--4--4-4-4-4--4-4-4-4--4-4--|
E|------------------------------------------------------|

e|--0--0-0-0-0--0-0-0-0--0-0--0--0-0-0-0--0-0-0-0--0-0--|
B|--0--0-0-0-0--0-0-0-0--0-0--0--0-0-0-0--0-0-0-0--0-0--|
G|--4--4-4-4-4--4-4-4-4--4-4--2--2-2-2-2--2-2-2-2--2-2--|
D|--4--4-4-4-4--4-4-4-4--4-4--2--2-2-2-2--2-2-2-2--2-2--|
A|--2--2-2-2-2--2-2-2-2--2-2--0--0-0-0-0--0-0-0-0--0-0--|
E|------------------------------------------------------|

e|--0--0-0-0-0--0-0-0-0--0-0--0--0-0-0-0--0-0-0-0--0-0--|
B|--0--0-0-0-0--0-0-0-0--0-0--0--0-0-0-0--0-0-0-0--0-0--|
G|--1--1-1-1-1--1-1-1-1--1-1--6--6-6-6-6--6-6-6-6--6-6--|
D|--2--2-2-2-2--2-2-2-2--2-2--6--6-6-6-6--6-6-6-6--6-6--|
A|--2--2-2-2-2--2-2-2-2--2-2--4--4-4-4-4--4-4-4-4--4-4--|
E|------------------------------------------------------|

e|--0--0-0-0-0--0-0-0-0--0-0--0--0-0-0-0--0-0-0-0--0-0--|
B|--0--0-0-0-0--0-0-0-0--0-0--0--0-0-0-0--0-0-0-0--0-0--|
G|--4--4-4-4-4--4-4-4-4--4-4--2--2-2-2-2--2-2-2-2--2-2--|
D|--4--4-4-4-4--4-4-4-4--4-4--2--2-2-2-2--2-2-2-2--2-2--|
A|--2--2-2-2-2--2-2-2-2--2-2--0--0-0-0-0--0-0-0-0--0-0--|
E|------------------------------------------------------|

e|--0--0-0-0-0--|
B|--0--0-0-0-0--|
G|--2--2-2-2-2--|
D|--2--2-2-2-2--|
A|--0--0-0-0-0--|
E|--------------|


Breakdown:

e|--0--0--0--0--0-0---0---0--0--0--0--0-0---0--|
B|--0--0--0--0--0-0---0---0--0--0--0--0-0---0--|
G|--4--4--4--4--4-4---2---4--4--4--4--4-4---2--|
D|--4--4--4--4--4-4---2---4--4--4--4--4-4---2--|
A|--2--2--2--2--2-2---0---2--2--2--2--2-2---0--|
E|---------------------------------------------|

e|--0--0--0--0--0-0---0---0--0--0--0--0-0---0--|
B|--0--0--0--0--0-0---0---0--0--0--0--0-0---0--|
G|--4--4--4--4--4-4---2---4--4--4--4--4-4---2--|
D|--4--4--4--4--4-4---2---4--4--4--4--4-4---2--|
A|--2--2--2--2--2-2---0---2--2--2--2--2-2---0--|
E|---------------------------------------------|


Chorus:

e|--0--0-0-0-0--0-0-0-0--0-0--0--0-0-0-0--0-0-0-0--0-0--|
B|--0--0-0-0-0--0-0-0-0--0-0--0--0-0-0-0--0-0-0-0--0-0--|
G|--1--1-1-1-1--1-1-1-1--1-1--6--6-6-6-6--6-6-6-6--6-6--|
D|--2--2-2-2-2--2-2-2-2--2-2--6--6-6-6-6--6-6-6-6--6-6--|
A|--2--2-2-2-2--2-2-2-2--2-2--4--4-4-4-4--4-4-4-4--4-4--|
E|------------------------------------------------------|

e|--0--0-0-0-0--0-0-0-0--0-0--0--0-0-0-0--0-0-0-0--0-0--|
B|--0--0-0-0-0--0-0-0-0--0-0--0--0-0-0-0--0-0-0-0--0-0--|
G|--4--4-4-4-4--4-4-4-4--4-4--2--2-2-2-2--2-2-2-2--2-2--|
D|--4--4-4-4-4--4-4-4-4--4-4--2--2-2-2-2--2-2-2-2--2-2--|
A|--2--2-2-2-2--2-2-2-2--2-2--0--0-0-0-0--0-0-0-0--0-0--|
E|------------------------------------------------------|

e|--0--0-0-0-0--0-0-0-0--0-0--0--0-0-0-0--0-0-0-0--0-0--|
B|--0--0-0-0-0--0-0-0-0--0-0--0--0-0-0-0--0-0-0-0--0-0--|
G|--1--1-1-1-1--1-1-1-1--1-1--6--6-6-6-6--6-6-6-6--6-6--|
D|--2--2-2-2-2--2-2-2-2--2-2--6--6-6-6-6--6-6-6-6--6-6--|
A|--2--2-2-2-2--2-2-2-2--2-2--4--4-4-4-4--4-4-4-4--4-4--|
E|------------------------------------------------------|

e|--0--0-0-0-0--0-0-0-0--0-0--0--0-0-0-0--0-0-0-0--0-0--|
B|--0--0-0-0-0--0-0-0-0--0-0--0--0-0-0-0--0-0-0-0--0-0--|
G|--4--4-4-4-4--4-4-4-4--4-4--2--2-2-2-2--2-2-2-2--2-2--|
D|--4--4-4-4-4--4-4-4-4--4-4--2--2-2-2-2--2-2-2-2--2-2--|
A|--2--2-2-2-2--2-2-2-2--2-2--0--0-0-0-0--0-0-0-0--0-0--|
E|------------------------------------------------------|

e|--0--0-0-0-0--0-0-0-0--0-0--0--0-0-0-0--0-0-0-0--0-0--|
B|--0--0-0-0-0--0-0-0-0--0-0--0--0-0-0-0--0-0-0-0--0-0--|
G|--1--1-1-1-1--1-1-1-1--1-1--6--6-6-6-6--6-6-6-6--6-6--|
D|--2--2-2-2-2--2-2-2-2--2-2--6--6-6-6-6--6-6-6-6--6-6--|
A|--2--2-2-2-2--2-2-2-2--2-2--4--4-4-4-4--4-4-4-4--4-4--|
E|------------------------------------------------------|

e|--0--0-0-0-0--0-0-0-0--0-0--0--0-0-0-0--0-0-0-0--0-0--|
B|--0--0-0-0-0--0-0-0-0--0-0--0--0-0-0-0--0-0-0-0--0-0--|
G|--4--4-4-4-4--4-4-4-4--4-4--2--2-2-2-2--2-2-2-2--2-2--|
D|--4--4-4-4-4--4-4-4-4--4-4--2--2-2-2-2--2-2-2-2--2-2--|
A|--2--2-2-2-2--2-2-2-2--2-2--0--0-0-0-0--0-0-0-0--0-0--|
E|------------------------------------------------------|

e|--0--0-0-0-0--0-0-0-0--0-0--0--0-0-0-0--0-0-0-0--0-0--|
B|--0--0-0-0-0--0-0-0-0--0-0--0--0-0-0-0--0-0-0-0--0-0--|
G|--1--1-1-1-1--1-1-1-1--1-1--6--6-6-6-6--6-6-6-6--6-6--|
D|--2--2-2-2-2--2-2-2-2--2-2--6--6-6-6-6--6-6-6-6--6-6--|
A|--2--2-2-2-2--2-2-2-2--2-2--4--4-4-4-4--4-4-4-4--4-4--|
E|------------------------------------------------------|

e|--0--0-0-0-0--0-0-0-0--0-0--0--0-0-0-0--0-0-0-0--0-0--|
B|--0--0-0-0-0--0-0-0-0--0-0--0--0-0-0-0--0-0-0-0--0-0--|
G|--4--4-4-4-4--4-4-4-4--4-4--2--2-2-2-2--2-2-2-2--2-2--|
D|--4--4-4-4-4--4-4-4-4--4-4--2--2-2-2-2--2-2-2-2--2-2--|
A|--2--2-2-2-2--2-2-2-2--2-2--0--0-0-0-0--0-0-0-0--0-0--|
E|------------------------------------------------------|


Breakdown:

e|--0--0--0--0--0---0--0--0--0--0---0--|
B|--0--0--0--0--0---0--0--0--0--0---0--|
G|--2--2--2--2--2---2--2--2--2--2---2--|
D|--2--2--2--2--2---2--2--2--2--2---2--|
A|--0--0--0--0--0---0--0--0--0--0---0--|
E|-------------------------------------|


Soft Chorus:

e|--0--0-0-0-0--0-0-0-0--0-0--0--0-0-0-0--0-0-0-0--0-0--|
B|--0--0-0-0-0--0-0-0-0--0-0--0--0-0-0-0--0-0-0-0--0-0--|
G|--1--1-1-1-1--1-1-1-1--1-1--6--6-6-6-6--6-6-6-6--6-6--|
D|--2--2-2-2-2--2-2-2-2--2-2--6--6-6-6-6--6-6-6-6--6-6--|
A|--2--2-2-2-2--2-2-2-2--2-2--4--4-4-4-4--4-4-4-4--4-4--|
E|------------------------------------------------------|
    p  p p p p  p p p p  p p  p  p p p p  p p p p  p p

e|--0--0-0-0-0--0-0-0-0--0-0--0--0-0-0-0--0-0-0-0--0-0--|
B|--0--0-0-0-0--0-0-0-0--0-0--0--0-0-0-0--0-0-0-0--0-0--|
G|--4--4-4-4-4--4-4-4-4--4-4--2--2-2-2-2--2-2-2-2--2-2--|
D|--4--4-4-4-4--4-4-4-4--4-4--2--2-2-2-2--2-2-2-2--2-2--|
A|--2--2-2-2-2--2-2-2-2--2-2--0--0-0-0-0--0-0-0-0--0-0--|
E|------------------------------------------------------|
    p  p p p p  p p p p  p p  p  p p p p  p p p p  p p


Chorus:

e|--0--0-0-0-0--0-0-0-0--0-0--0--0-0-0-0--0-0-0-0--0-0--|
B|--0--0-0-0-0--0-0-0-0--0-0--0--0-0-0-0--0-0-0-0--0-0--|
G|--1--1-1-1-1--1-1-1-1--1-1--6--6-6-6-6--6-6-6-6--6-6--|
D|--2--2-2-2-2--2-2-2-2--2-2--6--6-6-6-6--6-6-6-6--6-6--|
A|--2--2-2-2-2--2-2-2-2--2-2--4--4-4-4-4--4-4-4-4--4-4--|
E|------------------------------------------------------|

e|--0--0-0-0-0--0-0-0-0--0-0--0--0-0-0-0--0-0-0-0--0-0--|
B|--0--0-0-0-0--0-0-0-0--0-0--0--0-0-0-0--0-0-0-0--0-0--|
G|--4--4-4-4-4--4-4-4-4--4-4--2--2-2-2-2--2-2-2-2--2-2--|
D|--4--4-4-4-4--4-4-4-4--4-4--2--2-2-2-2--2-2-2-2--2-2--|
A|--2--2-2-2-2--2-2-2-2--2-2--0--0-0-0-0--0-0-0-0--0-0--|
E|------------------------------------------------------|

e|--0--0-0-0-0--0-0-0-0--0-0--0--0-0-0-0--0-0-0-0--0-0--|
B|--0--0-0-0-0--0-0-0-0--0-0--0--0-0-0-0--0-0-0-0--0-0--|
G|--1--1-1-1-1--1-1-1-1--1-1--6--6-6-6-6--6-6-6-6--6-6--|
D|--2--2-2-2-2--2-2-2-2--2-2--6--6-6-6-6--6-6-6-6--6-6--|
A|--2--2-2-2-2--2-2-2-2--2-2--4--4-4-4-4--4-4-4-4--4-4--|
E|------------------------------------------------------|

e|--0--0-0-0-0--0-0-0-0--0-0--0--0-0-0-0--0-0-0-0--0-0--|
B|--0--0-0-0-0--0-0-0-0--0-0--0--0-0-0-0--0-0-0-0--0-0--|
G|--4--4-4-4-4--4-4-4-4--4-4--2--2-2-2-2--2-2-2-2--2-2--|
D|--4--4-4-4-4--4-4-4-4--4-4--2--2-2-2-2--2-2-2-2--2-2--|
A|--2--2-2-2-2--2-2-2-2--2-2--0--0-0-0-0--0-0-0-0--0-0--|
E|------------------------------------------------------|

e|--0--0-0-0-0--0-0-0-0--0-0--0--0-0-0-0--0-0-0-0--0-0--|
B|--0--0-0-0-0--0-0-0-0--0-0--0--0-0-0-0--0-0-0-0--0-0--|
G|--1--1-1-1-1--1-1-1-1--1-1--6--6-6-6-6--6-6-6-6--6-6--|
D|--2--2-2-2-2--2-2-2-2--2-2--6--6-6-6-6--6-6-6-6--6-6--|
A|--2--2-2-2-2--2-2-2-2--2-2--4--4-4-4-4--4-4-4-4--4-4--|
E|------------------------------------------------------|

e|--0--0-0-0-0--0-0-0-0--0-0--0--0-0-0-0--0-0-0-0--0-0--|
B|--0--0-0-0-0--0-0-0-0--0-0--0--0-0-0-0--0-0-0-0--0-0--|
G|--4--4-4-4-4--4-4-4-4--4-4--2--2-2-2-2--2-2-2-2--2-2--|
D|--4--4-4-4-4--4-4-4-4--4-4--2--2-2-2-2--2-2-2-2--2-2--|
A|--2--2-2-2-2--2-2-2-2--2-2--0--0-0-0-0--0-0-0-0--0-0--|
E|------------------------------------------------------|

e|--0--0-0-0-0--0-0-0-0--0-0--0--0-0-0-0--0-0-0-0--0-0--|
B|--0--0-0-0-0--0-0-0-0--0-0--0--0-0-0-0--0-0-0-0--0-0--|
G|--1--1-1-1-1--1-1-1-1--1-1--6--6-6-6-6--6-6-6-6--6-6--|
D|--2--2-2-2-2--2-2-2-2--2-2--6--6-6-6-6--6-6-6-6--6-6--|
A|--2--2-2-2-2--2-2-2-2--2-2--4--4-4-4-4--4-4-4-4--4-4--|
E|------------------------------------------------------|

e|--0--0-0-0-0--0-0-0-0--0-0--0--0-0-0-0--0-0-0-0--0-0--|
B|--0--0-0-0-0--0-0-0-0--0-0--0--0-0-0-0--0-0-0-0--0-0--|
G|--4--4-4-4-4--4-4-4-4--4-4--2--2-2-2-2--2-2-2-2--2-2--|
D|--4--4-4-4-4--4-4-4-4--4-4--2--2-2-2-2--2-2-2-2--2-2--|
A|--2--2-2-2-2--2-2-2-2--2-2--0--0-0-0-0--0-0-0-0--0-0--|
E|------------------------------------------------------|

e|--0--0-0-0-0--0-0-0-0--0-0--0--0-0-0-0--0-0-0-0--0-0--|
B|--0--0-0-0-0--0-0-0-0--0-0--0--0-0-0-0--0-0-0-0--0-0--|
G|--1--1-1-1-1--1-1-1-1--1-1--6--6-6-6-6--6-6-6-6--6-6--|
D|--2--2-2-2-2--2-2-2-2--2-2--6--6-6-6-6--6-6-6-6--6-6--|
A|--2--2-2-2-2--2-2-2-2--2-2--4--4-4-4-4--4-4-4-4--4-4--|
E|------------------------------------------------------|

e|--0--0-0-0-0--0-0-0-0--0-0----0--|
B|--0--0-0-0-0--0-0-0-0--0-0----0--|
G|--4--4-4-4-4--4-4-4-4--4-4----2--|
D|--4--4-4-4-4--4-4-4-4--4-4----2--|
A|--2--2-2-2-2--2-2-2-2--2-2----0--|
E|---------------------------------|
Suggest correction
Give kudos to tab author, rate the tab!
1 2 3 4 5
comments
print report bad tab
guest
You may want to rate the tab now too:
select rating
Wanna post a correction for this tab? Suggest correction