Oops, an error
Loading. Please wait.

Mary Jane Tab

version 2
version 2

Whole song

1,118 views 1 this week
no commentswrite comment
1 2 3 4 5
please rate
add to favorites
launch autoscroll
font size
0
reset
how to read this tab
guitar tuner
Autoscroll
slow
fast
+/-
esc
set tempo
stop
Help us to improve Ultimate-Guitar.com Take our survey!
×
Author
Artist: Silvertide
Song: Mary Jayne
Album: Show & Tell
Tuning: Standard (EADGBE)
Copy and Paste into Wordpad if it does not appear correctly.

Tab: Ryan Snider (ryanesnider@yahoo.com)
Silvertide - Mary Jayne
Main Riff:
E----------------------------------------------------------------------------------------------|
B----------------------------------------------------------------------------------------------|
G-2--2-----2--2---------------------------------------------2--2-------------------------------|
D-2--2-----2--2---------------------------------------------2--2-------------------------------|
A-0--0-----0--0---3p0--3p0--3p0---------5p0--------0--0--3p0--3p0--3p0---------5p0-------------|
E------------------------------------------3p0--------------------------------------------3p0--|

With Wah:
E--------------|
B--------------|
G--2-----------|
D--2-----------|
A--0-----------|
E--------------|

Fade In:

E--------------|
B--------------|
G----5tr7------|
D--------------|
A--------------|
E--------------|

Intro Solo:

E------------------------------------------------------------------------------------------8b--|
B----------------------------*-----------*---------------------------------8b----5h8-----------|
G-------------7b------7---7p5-------5-------------------------5h7------------------------------|
D------\-----------------------------7------7p5--5--7~-----------------------------------------|
A-----\----------------------------------------------------------------------------------------|
E----\-----------------------------------------------------------------------------------------|

E----8h10p8-------8--------------------------------------------------|
B----------------10------10--8h10p8----------------------------------|
G-------------------------------------------9------------------------|
D-----------------------------------------------10~------------------|
A--------------------------------------------------------------------|
E--------------------------------------------------------------------|

Verse:

E--------------------------------------------------------------------------------------------|
B--------------------------------------------------------------------------------------------|
G---2-----------2--2---------------------------------------2--2------------------------------|
D---2-----------2--2---------------------------------------2--2------------------------------|
A---0-----------0--0--3p0--3p0--3p0---------5p0---0--0--3p0--3p0--3p0---------5p0------------|
E---------------------------------------------3p0---------------------------------------3p0--|

End Verse:

E-----------------------------|
B-----------------------------|
G---2--2-2-2-2-2-2-2----------|
D---2--2-2-2-2-2-2-2----------|
A---0--0-0-0-0-0-0-0----------|
E-----------------------------|

Chorus:

E------------------------------------|
B------------------------------------|
G-----------------------------2------|
D---2--2-------------5--5--2---------|
A---2--2-------------5--5--0---------|
E---0--0---/(15)\---3--3-------------|

Fill before 2nd verse:

E------------------------------------------------|
B------------------------------------------8b----|
G--------7b--7~---5~-----------------------------|
D---------------------------7--5--7~-------------|
A------------------------------------------------|
E------------------------------------------------|

Bridge:

E-----3-----------2-------0----------3--------2------0-----------|
B-----3-----------3-------0----------3--------3------0-----------|
G-----0-----------2-------2----------0--------2------2-----------|
D-----0-----------0-------2----------0--------0------2-----------|
A-----2--------------------0----------2----------------0---------|
E-----3--------------------------------3-------------------------|

Solo:

On the intro slide, slide from ghost note, while lowering with tremolo arm to get effect.
E-------------------17p15p12h15h17--17p15p12h15h17-17p15p12h15h17-17p15p12p12h15h17--|
B----(3)/(17)------------------------------------------------------------------------|
G------------------------------------------------------------------------------------|
D------------------------------------------------------------------------------------|
A------------------------------------------------------------------------------------|
E------------------------------------------------------------------------------------|

E----17p15p12h15h17-17p15p12h15h17-17p15p12h15h17-17p15p12h15h17-17p15p12--|
B--------------------------------------------------------------------------|
G--------------------------------------------------------------------------|
D--------------------------------------------------------------------------|
A--------------------------------------------------------------------------|
E--------------------------------------------------------------------------|

E----15b----13p12--------------12h13--15b----12-15-12-15--------------------------------|
B-------------------------15p12----------------------------------------12-15-12-15------|
G---------------------------------------------------------------------------------------|
D---------------------------------------------------------------------------------------|
A---------------------------------------------------------------------------------------|
E---------------------------------------------------------------------------------------|

E-----------------------------------------------------------------------------------|
B-----------------------------------------------------------------------------------|
G----12-14-12-14-11-13-10-12-9-11-8-10-7-9-6-8-5-7-4-----------7b--7--5--7--5-------|
D-----------------------------------------------------------------------------------|
A-----------------------------------------------------------------------------------|
E-----------------------------------------------------------------------------------|

E------------------------------------------------------------------------------------|
B-----------------------------------13b--13--10--13--10-----15b--15--13--15--13------|
G-12b--12--10--12--10----------------------12----------------------------------------|
D---------7----------------12--------------------------------------------------------|
A------------------------------------------------------------------------------------|
E------------------------------------------------------------------------------------|

E-----------------------------------------------------------------------------------------|
B-----15b--15--13--15--13----------15b--15--13--15--13-------------13~--12~--10~---8~---8~|
G------14~-------------------------------14~---------------14~-----15~--14~--12~--10~--8~-|
D-----------------------------------------------------------------------------------------|
A-----------------------------------------------------------------------------------------|
E-----------------------------------------------------------------------------------------|

E------/17~---/17~--/17~--/15~------------------------------------------------------17~--|
B--------------------------------/15b--15p13h15p13-------------15p13h15p13---------------|
G-----------------------------------------------------14~--------------------14----------|
D----------------------------------------------------------------------------------------|
A----------------------------------------------------------------------------------------|
E----------------------------------------------------------------------------------------|


Key:

h = Hammer On
p = Pull Off
b = Bend
tr = Trill
~ = Vibrato
/ = Slide up towards body
\ = Slide down towards headstock
* = Artificial Harmonic
(3) = Ghost Note
t = Tap with right hand
Suggest correction
What's this?
You can suggest a correction to this tab. Community and Mods will review your correction and vote to approve or reject it.
comments
We did not receive enough feedback on this tab! Please rate:
print report bad tab
1 2 3 4 5
guest
You may want to rate the tab now too:
select rating
Please do not post tabs as comments. Select "correction" instead!