Oops, an error
Loading. Please wait.

Sfc Tab

716 views 1 this week
no commentswrite comment
1 2 3 4 5
please rate
add to favorites
launch autoscroll
font size
0
reset
how to read this tab
guitar tuner
Autoscroll
slow
fast
+/-
esc
set tempo
stop
Help us to improve Ultimate-Guitar.com Take our survey!
×
Author
Wanknut 34
S.F.C. – Silvertide     
Tabbed by Master Wanknut        
Rhythm Guitar Part
Tunned a Half Step Down


this is all I have so far, i’m still working on the lead part…

VERSE
e------------|---------|---------|------------------|
B------------|---------|---------|------------------|
G---4-4-xx---|---4-4---|---4-4---|------------------|
D---4-4-xx---|---4-4---|---4-4---|-----*pause*------|
A---2-2-xx---|---2-2---|---2-2---|------------------|
E------------|---------|---------|------------------|

Why don’t you …
e----------|---------------|---------|------------------|
B----------|---------------|---------|------------------|
G---4-4----|---4-4----9\---|---4-4---|------------------|
D---4-4----|---4-4----9\---|---4-4---|---*pause*--------|
A---2-2----|---2-2---------|---2-2---|------------------|
E----------|---------------|---------|------------------|

Cause I’m really…
e----------|---------------|---------|------------------|
B----------|---------------|---------|------------------|
G---4-4----|---4-4----9\---|---4-4---|------------------|
D---4-4----|---4-4----9\---|---4-4---|---*pause*--------|
A---2-2----|---2-2---------|---2-2---|------------------|
E----------|---------------|---------|------------------|

You think you… 
e----------|---------------|---------|--------------------|
B----------|---------------|---------|--5h6-5h6-5---------|
G---4-4----|---4-4----9\---|---4-4---|-------------7-4----|
D---4-4----|---4-4----9\---|---4-4---|--- -------------7--|
A---2-2----|---2-2---------|---2-2---|--------------------|
E----------|---------------|---------|--------------------|

But I’m really not listening to you anyway…
e----------------------|----------------------------------|
B----------------------|----------------------------------|
G---------------4-4----|---4-4----------------------------|
D---------------4-4----|---4-4----------------------------|
A---------------2-2----|---2-2----------------------------|
E----------------------|----------------------------------|


CHORUS
It’s all in your head…
e------------|------------|------------|------------|
B------------|------------|------------|------------|
G--44444444--|--77777777--|--99999999--|--7-9-7--2--|
D--44444444--|--77777777--|--99999999--|--7-9-7--2--|
A--22222222--|--55555555--|--77777777--|--5-7-5--0--|
E------------|------------|------------|------------|

e------------|------------|------------|------------|
B------------|------------|------------|------------|
G--44444444--|--77777777--|--99999999--|--7-9-7--2--|
D--44444444--|--77777777--|--99999999--|--7-9-7--2--|
A--22222222--|--55555555--|--77777777--|--5-7-5--0--|
E------------|------------|------------|------------|

e------------|------------|------------|------------|
B------------|------------|------------|------------|
G--44444444--|--77777777--|--9---------|------------|
D--44444444--|--77777777--|--9---------|------------|
A--22222222--|--55555555--|--7---------|------------|
E------------|------------|------------|------------|

INTERLUDE
e-----------------------------|
B-----------------------------|
G--4---4---4---4---4----9--7--|
D--4---4---4---4---4----9--7--|x6
A--0-2-0-2-0-2-0-2-2----7--5--|
E-----------------------------|

VERSE – (with slight changes)

CHORUS

INTERLUDE

BRIDGE
e----------|---------------|
B----------|---------------|
G-----9----|---7-----------|
D-----9----|---7----9--7\--|x4
A-----7----|---5----9--7\--|
E----------|--------7--5\--|



e-------------------|-------------------|
B-------------------|-------------------|
G-------------------|-------------------|
D--3-3-3-3-3-3-3-3--|--5-5-5-5-5-5-5-5--|
A--3-3-3-3-3-3-3-3--|--5-5-5-5-5-5-5-5--|
E--1-1-1-1-1-1-1-1--|--3-3-3-3-3-3-3-3--|

                                (on last time..)
e---------------------------|     --------------------|
B---------------------------|     --------------------|
G---------------------7--5--|     --------------------|
D---------------------7--5--|x7   --------------------|
A---------------------5--3--|     --------------------|
E--3-5-3-5-3-5-3-5-5--------|     -3-5-3-5-3-5-3-5-5--|


CHORUS

INTERLUDE
Suggest correction
What's this?
You can suggest a correction to this tab. Community and Mods will review your correction and vote to approve or reject it.
comments
We did not receive enough feedback on this tab! Please rate:
print report bad tab
1 2 3 4 5
guest
You may want to rate the tab now too:
select rating
Please do not post tabs as comments. Select "correction" instead!