Oops, an error
Loading. Please wait.

Things Are Gonna Change Tab

287 views 1 this week
no commentswrite comment
1 2 3 4 5
3 more votes to show rating
add to favorites
launch autoscroll
font size
0
reset
how to read this tab
guitar tuner
Autoscroll
slow
fast
+/-
esc
set tempo
stop
Help us to improve Ultimate-Guitar.com Take our survey!
×
Author
Difficulty
Capo
novice
2nd fret
-------------------------------------------------------------------------------
                                 THINGS ARE GONNA CHANGE - Silvertide
-------------------------------------------------------------------------------
Tabbed by:Rodrigomierh
Email: rodrigomierh@hotmail.com


Standard Tuning (E A D G B E)

Capo on 2nd Fret


----------------------------------------------------------
Main riff ( intro and verses)
you should know the strumming pattern, it's really easy.
----------------------------------------------------------

|-3---3------3---3------------|
|-3---3------3---3------------|
|-0---0------0---0------------| (Repeat as necessary)
|-0---0------2---0------------|  
|-2---x--0-2-3---2-2-3-2-0----| 
|-3---2-----------------------|


guitar 2 plays this

|-----3---5---3------|
|---3---3---3---3----|
|-0------------------| (Repeat as necessary)
|--------------------|
|--------------------|
|--------------------|

----------------------------------------------------------
Chorus
----------------------------------------------------------
Guitar 1 
|-------|-------|---3-2--------|
|-5---7-|-5---7-|-3-----3------|
|-5---7-|-5---7-|---------0----| (let ring)
|-7---7-|-7---7-|--------------|
|-7---5-|-7---5-|--------------|
|-5---5-|-5---5-|--------------|

Guitar 2 plays the same chords but with a strumming pattern.


----------------------------------------------------------
Solo
----------------------------------------------------------

|-/10-/8-/7-/5-/3-------/10-/8-/7-/5-/3-------|
|-----------------/5-\3-----------------/5-\3-|
|---------------------------------------------|
|---------------------------------------------|
|---------------------------------------------|
|---------------------------------------------|


|-3-/5-/7-/8-/10-\8-\7-\5-\3-/5-\3-/5-/5-5h7-7p5S3-/10-10-10-10-10-10-10-|
|------------------------------------------------------------------------|
|------------------------------------------------------------------------|
|------------------------------------------------------------------------|
|------------------------------------------------------------------------|
|------------------------------------------------------------------------|

----------------------------------------------------------
Chorus before breakdown
----------------------------------------------------------

|-------|----------|
|-5---7-|-5---7----|
|-5---7-|-5---7----|
|-7---7-|-7---7----|
|-7---5-|-7---5----|
|-5---5-|-5---5----|

Guitar 2 plays the same chords but with a strumming pattern.

----------------------------------------------------------
Breakdown
----------------------------------------------------------

|-^0---^0---0---0--|-^0---^0---0---0----|
|-^0---^0---0---0--|-^0---^0---0---0----|
|-^0---^2---0---7--|-^0---^2---0---7----| (let ring)
|-^2---^2---5---7--|-^2---^2---5---7----|
|-^2---^0---3---5--|-^2---^0---3---5----|
|-^0---------------|-^0-----------------|

----------------------------------------------------------
Outro Solo
----------------------------------------------------------

|-3---3-----2-----0-------0-----2-----3---|
|---3---3-----3-----3---3---3-----3-----3-|
|---------0-----0-----0-------0-----0-----|
|-----------------------------------------|
|-----------------------------------------|
|-----------------------------------------|


|-3---3-----5-----3-----2-----0-------0-----2-----3-----3-----3---|
|---3---3-----3-----3-----3-----3---3---3-----3-----3-----3-----3-|
|---------0-----0-----0-----0-----0-------0-----0-----0-----0-----|
|-----------------------------------------------------------------|
|-----------------------------------------------------------------|
|-----------------------------------------------------------------|

  
 
||--5-3-2----|      |-3S5--5-5--5S7-7-7--7S5-5-5--5S3--3-3-3----|
||--------3--|\     |-------------------------------------------|
||-----------| (8x) |-------------------------------------------|
||-----------|/     |-------------------------------------------|
||-----------|      |-------------------------------------------|
||-----------|      |-------------------------------------------| 


|-3-2-------------|
|-----3-3/5--3~~--|
|-----------------|
|-----------------|
|-----------------|
|-----------------|




Song structure

main riff (intro and verses)
Chorus
main riff (intro and verses)
Chorus
Solo
Chorus before breakdown
Breakdown
Outro Solo.




Tablature Legend
----------------
 h   - hammer-on
 p   - pull-off
 b   - bend
 pb  - pre-bend
 r   - bend release (if no number after the r, then release immediately)
 /\  - slide into or out of (from/to "nowhere")
 s   - legato slide
 S   - shift slide

Suggest correction
Give kudos to tab author, rate the tab!
1 2 3 4 5
comments
print report bad tab
guest
You may want to rate the tab now too:
select rating
Wanna post a correction for this tab? Suggest correction