Oops, an error
Loading. Please wait.

To See Where I Hide Tab

version 2
version 2

Whole song

427 views 1 this week
no commentswrite comment
1 2 3 4 5
2 more votes to show rating
add to favorites
launch autoscroll
font size
0
reset
how to read this tab
guitar tuner
Autoscroll
slow
fast
+/-
esc
set tempo
stop
Help us to improve Ultimate-Guitar.com Take our survey!
×
Author
"To See Where I Hide" by Silvertide
standard tuning

Intro

The beginning is just a note being sustained (I think a c on the 5th fret of the g string)
with the pickup-selector switch being toggled between the different setting
                                              X2
e-----------------------------------------------|
b-----------------------------------------------|
g-------------------------------------7~-5------|
d-0-0-0-0-3-0-0-5-0-0-6--6/7--0-0-0-0------7-5\-|
a-----------------------------------------------|
e-----------------------------------------------|

 Lead break (Rhythm plays the intro riff twice):
 (for some of the notes, dig the pick in quite hard to get the right tone)

e--------------------------------------------------------------------|
b-x-x------------------------x-x-x-x-x-x---------------------8b10~~--|
g-5-x-------7b9r7b9~-5-------5-x-7-5-7-5-----7b9r7b9~-5--------------|
d-----7~~~-------------7~~~--------------7~~~-------------7~~--------|
a--------------------------------------------------------------------|
e--------------------------------------------------------------------|

 (Rhythm plays the intro riff twice)

verse
                                              x4 (a 2nd guitar strums some muted notes 
the end of the 4th playing)
e-----------------------------------------------|
b-----------------------------------------------|
g-------------------------------------7~-5------|
d-0-0-0-0-3-0-0-5-0-0-6--6/7--0-0-0-0------7-5\-|
a-----------------------------------------------|
e-----------------------------------------------|

Chorus
                                               [1]                 [2]
e---------------------------------------------|--------------------|--------------------|
b---------------------------------------------|--------------------|--------------------|
g-3--3--3-3-3-3--2--2--2-2-2-2--3--3--3-3-3-3-|-/5--5--5-5-5-5-5-5-|-/5--5-5-5-5-5-5-5--|
d-3--3--3-3-3-3--2--2--2-2-2-2--3--3--3-3-3-3-|-/5--5--5-5-5-5-5-5-|-/5--5-5-5-5-5-5-5--|
a-1--1--1-1-1-1--0--0--0-0-0-0--1--1--1-1-1-1-|-/3--3--3-3-3-3-3-3-|-/3--3-3-3-3-3-3-3--|
e---------------------------------------------|--------------------|--------------------|

Post-Chorus
                                              X2
e-----------------------------------------------|
b-----------------------------------------------|
g-------------------------------------7~-5------|
d-0-0-0-0-3-0-0-5-0-0-6--6/7--0-0-0-0------7-5\-|
a-----------------------------------------------|
e-----------------------------------------------|

 During the 2nd playing, the lead guitar plays: (note, the pull-offs after the bends are pretty quick)
                                           PH
e----------------------------------------------------|
b----------------------------------------------------|
g-7b9r7p5-7b9r7p5-7b9r7p5-7b9r7p5-7p5------7b9-------|
d-------------------------------------7~~-------7~~--|
a----------------------------------------------------|
e----------------------------------------------------|

verse
                                              x4 (there's a toggle-switch bit during this verse)
e-----------------------------------------------|
b-----------------------------------------------|
g-------------------------------------7~-5------|
d-0-0-0-0-3-0-0-5-0-0-6--6/7--0-0-0-0------7-5\-|
a-----------------------------------------------|
e-----------------------------------------------|

Chorus
                                               [1]                 [2]
e---------------------------------------------|--------------------|--------------------|
b---------------------------------------------|--------------------|--------------------|
g-3--3--3-3-3-3--2--2--2-2-2-2--3--3--3-3-3-3-|-/5--5--5-5-5-5-5-5-|-/5--5-5-5-5-5-5-5--|
d-3--3--3-3-3-3--2--2--2-2-2-2--3--3--3-3-3-3-|-/5--5--5-5-5-5-5-5-|-/5--5-5-5-5-5-5-5--|
a-1--1--1-1-1-1--0--0--0-0-0-0--1--1--1-1-1-1-|-/3--3--3-3-3-3-3-3-|-/3--3-3-3-3-3-3-3--|
e---------------------------------------------|--------------------|--------------------|

Post-Chorus
                               x3
e--------------------------------|---------------------|
b--------------------------------|---------------------|
g-5/7-7-7--7-7-7--5/7-7-7--7-7-7-|-7-7--12--x-10-x-7---|
d-5/7-7-7--7-7-7--5/7-7-7--7-7-7-|---------------------|
a-3/5-5-5--5-5-5--3/5-5-5--5-5-5-|-5-5--10--x-8--x-5---|
e--------------------------------|---------------------|

Guitar Solo
                                                                Semi-PH
e-----------10---------------------------------------------------------------|
b-13b15~~------13-10--------------13-----------------------------------------|
g--------------------12-10-12b14-----12b14-10--10/12-12b14r12p10-12p10-------|
d----------------------------------------------------------------------12~~--|
a----------------------------------------------------------------------------|
e----------------------------------------------------------------------------|
                   PH
e--------------------------------------------------------------------------------------|
b-----------------------------------------------------------6-8b10---8b10-8b10r8--6----|
g-12p10----x-------12-//11-//10-//9---------5h7p5------5h75-------------------------7--|
d-------12-x-10h12-------------------/7-5h7--------5h7---------------------------------|
a--------------------------------------------------------------------------------------|
e--------------------------------------------------------------------------------------|

e--------------------------------------------------------------------------------------|
b-8p6-------6--5--4--3------------6~--8p6---6-8-8b10--10-6---------6h8-6---------------|
g-----7-5h7-------------5/7-7-7-7---------7----------------7~--5h7-------7-------------|
d--------------------------------------------------------------------------------------|
a--------------------------------------------------------------------------------------|
e--------------------------------------------------------------------------------------|

e----------------------------------------------------------------------------|
b-13p10----13p10----13p10----13p10----10-13b15--13--13p10----13p10----13b15--|
g-------12-------12-------12-------12---------------------12-------12--------|
d----------------------------------------------------------------------------|
a----------------------------------------------------------------------------|
e----------------------------------------------------------------------------|

e-10---------------------------------10---------------------------------|
b----13-10-----13b15r13p10-13p10--------13-10-----13b15r13p10-13p10-----|
g----------12--------------------12-----------12--------------------12--|
d-----------------------------------------------------------------------|
a-----------------------------------------------------------------------|
e-----------------------------------------------------------------------|

e-10-------------------------------------------------------------15-15b17--15b18--------|
b----13-10----13b15r13p10-13b15r13p10-13-13-13-15-15-15-17-17-17------------------15~~--|
g----------12---------------------------------------------------------------------------|
d---------------------------------------------------------------------------------------|
a---------------------------------------------------------------------------------------|
e---------------------------------------------------------------------------------------|

Bridge

Bass plays intor riff twice, then:
                                                     x2
e------|-----------------------------------------------|
b------|-----------------------------------------------|
g------|-------------------------------------7~-5------|
d------|-0-0-0-0-3-0-0-5-0-0-6--6/7--0-0-0-0------7-5\-|
a-PS\\\|-----------------------------------------------|
e------|-----------------------------------------------|

Chorus
                                               [1]                 [2]
e---------------------------------------------|--------------------|--------------------|
b---------------------------------------------|--------------------|--------------------|
g-3--3--3-3-3-3--2--2--2-2-2-2--3--3--3-3-3-3-|-/5--5--5-5-5-5-5-5-|-/5--5-5-5-5-5-5-5--|
d-3--3--3-3-3-3--2--2--2-2-2-2--3--3--3-3-3-3-|-/5--5--5-5-5-5-5-5-|-/5--5-5-5-5-5-5-5--|
a-1--1--1-1-1-1--0--0--0-0-0-0--1--1--1-1-1-1-|-/3--3--3-3-3-3-3-3-|-/3--3-3-3-3-3-3-3--|
e---------------------------------------------|--------------------|--------------------|

Outro
                                              x2
e-----------------------------------------------|-----------------------------------------------|
b-----------------------------------------------|-----------------------------------------------|
g-------------------------------------7~-5------|-----------------------------------------------|
d-0-0-0-0-3-0-0-5-0-0-6--6/7--0-0-0-0------7-5\-|-0-0-0-0-3-0-0-5-0-0-6--6/7--6-5-3----6-5-3----|
a-----------------------------------------------|-----------------------------------5--------5--|
e-----------------------------------------------|-----------------------------------------------|

                          -drum fill-
e------------------------------------------|
b-----------------------3-------------3----|
g--------------------5--2-------------2----|
d-7--6-5-3---3-5-6-7----0-------------0----|
a----------5-------------------------------|
e------------------------------------------|
Suggest correction
Give kudos to tab author, rate the tab!
1 2 3 4 5
comments
print report bad tab
guest
You may want to rate the tab now too:
select rating
Wanna post a correction for this tab? Suggest correction