Oops, an error
Loading. Please wait.

Beso Al Vaso Tab

20 views 1 this week
no commentswrite comment
1 2 3 4 5
3 more votes to show rating
add to favorites
×
Save as Personal and add changes to this tab that will be seen only by you. Learn more ›
×
You can save this tab as Personal to edit and correct it or add notes. All changes will be seen only by you. Learn more »
save as personal
new!
launch autoscroll
font size
0
reset
how to read this tab
guitar tuner
Autoscroll
slow
fast
+/-
esc
set tempo
stop
Em

e-----7---------7---------------7---------7------------
B--5----7-8--5----7-7-8-7----5----7-8--5----7-7-8-8----
G------------------------------------------------------    X2    (se repite durante los versos)
D------------------------------------------------------
A------------------------------------------------------
E------------------------------------------------------

e-----7---------7--------------10--8--7--5--7-7--------
B--5----7-8--5----7-7-8-8---5--------------------7-8-8-
G------------------------------------------------------    X2
D------------------------------------------------------
A------------------------------------------------------
E------------------------------------------------------

Em
Se que es verdad

Suficientemente la verdad

Ir con arroz

Ir corriendo el tiempo que no esta
Am         C                    Em
Ya no vas a ver lo que es soledad
Am            C                  B7
Ya no ves muy bien lo que es ser normal

  Em

e-----7---------7--------------10--8--7--5--7-7--------
B--5----7-8--5----7-7-8-8---5--------------------7-8-8-
G------------------------------------------------------           X2
D------------------------------------------------------
A------------------------------------------------------
E------------------------------------------------------


Em
En una esquina

Estaremos solos tu y yo

Nadie sabrá

Lo siempre nunca nos unió
Am             C                Em
Devuelveme el sol quiero ver la luz
Am           C              B7                  Gm
Si la claridad me hace ser fatal...Sabrás que voy

Gm                      C5  D5  D#5  G5'  G#5'  F5'  G5'  D#5  D5 -------> Rapido
Doy un beso al vaso y mas.........................Puedo continuar
Gm                  C5  D5  D#5  G5'  G#5'  F5'  G5'  D#5  D5 -----------> Rapido
Tomar hasta reventar..........................Tengo la verdad
Gm                       C*
Frente a frente estoy en paz
    Cm                           Em
La salida esta cerrada y es normal


Em                                 Am     C
Empañare tocare los vidrios de tu piel
Em                                    Am    C
Hasta quebrar, devorarme lo que ya no esta
Em                                 Am     C
Empañare tocare los vidrios de tu piel
Em                                    Am    C                  Gm
Hasta quebrar, devorarme lo que ya no esta........Sabrás que voy


Gm                      C5  D5  D#5  G5'  G#5'  F5'  G5'  D#5  D5 -------> Rapido
Doy un beso al vaso y mas.........................Puedo continuar
Gm                  C5  D5  D#5  G5'  G#5'  F5'  G5'  D#5  D5 -----------> Rapido
Tomar hasta reventar..........................Tengo la verdad
Gm                       C*
Frente a frente estoy en paz
    Cm                           Em
La salida esta cerrada y es normal

Gm                      C5  D5  D#5  G5'  G#5'  F5'  G5'  D#5  D5 -------> Rapido
Doy un beso al vaso y mas.........................Puedo continuar
Gm                  C5  D5  D#5  G5'  G#5'  F5'  G5'  D#5  D5 -----------> Rapido
Tomar hasta reventar..........................Tengo la verdad
Gm                       C*
Frente a frente estoy en paz
    Cm                           Em
La salida esta cerrada y es normal


Gm                      C5  D5  D#5  G5'  G#5'  F5'  G5'  D#5  D5 -------> Rapido      X2

Gm     C*      Cm

  Em

e-----7---------7--------------10--8--7--5--7-7--------
B--5----7-8--5----7-7-8-8---5--------------------7-8-8-
G------------------------------------------------------           X3
D------------------------------------------------------
A------------------------------------------------------
E------------------------------------------------------


Acordes:

Em  :022000
Am  :002210
C   :032010
B7  :x21202
Gm  :355333
C5  :x355xx
D5  :x577xx
D#5 :x688xx
G5' :x101212xx
G#5':x111313xx
F5' :x81010xx
C*  :335553
Cm  :335543

Cualquier duda me escriben
Atte Yo
Suggest correction
Give kudos to tab author, rate the tab!
1 2 3 4 5
comments
print report bad tab
guest
Wanna post a correction for this tab? Suggest correction