Oops, an error
Loading. Please wait.

Burrito Tab

15 views 1 this week
no commentswrite comment
1 2 3 4 5
3 more votes to show rating
add to favorites
launch autoscroll
font size
0
reset
how to read this tab
guitar tuner
×
Best way to learn
"Burrito"
Autoscroll
slow
fast
+/-
esc
set tempo
stop
Gm
-3~-
-3~-
-3~- X4
-5~-
-5~-
-3~-

      Cm              Gm     Cm              Gm
-------------------------------------------------
-----------------------------------------------<-
-5-7^---7-5>--5-7-8-7----5-7^---7-5>--5-7-8-7----
------5---------------5------5---------------5---
-------------------------------------------------
-------------------------------------------------

         Cm                              Gm
------10-8---------------------------------------
----8------10h11-10-10h11-11-10-11-10-11---------
---8-------------------------------------12------
-10-----------------------------------------12->-
-------------------------------------------------
-------------------------------------------------

         Cm                                   D
------10-8-8-8-8-----------------------------------------
----8-------------11-10>-11-10>-11-10-11-10--------------
---8----------------------------------------12-11^-------
-10------------------------------------------------------
---------------------------------------------------------
---------------------------------------------------------

            Cm                                      D
---------------------------10>-15-13-11-10-11-10-11-10----10-
------10-11-------------11-----------------------------10----
-11-12------12-12-12-12--------------------------------------
-------------------------------------------------------------
-------------------------------------------------------------
-------------------------------------------------------------

            Cm                                               D
---------------------------10-10-10-10-15-13-11-10-11-10-11-10--10----
------10-11-------------11------------------------------------10--13--
-11-12------12-12-12-12-----------------------------------------------
----------------------------------------------------------------------
----------------------------------------------------------------------
----------------------------------------------------------------------

  A#    D    Gm
------------------------------------
-11-13-10-11------------------------
-------------12-0-12-0-12-0-12-0-12-
------------------------------------
------------------------------------
------------------------------------

          Cm                         Gm
-8-10^-10-----------8--8-10-11-10-11-----------------
----------8-8-8-8-8------------------8-8-8-8-8-8-8-8-
-----------------------------------------------------
-----------------------------------------------------
-----------------------------------------------------
-----------------------------------------------------

           Cm
----------------------------------
----------------------------------
-5-7-8-7-8-----------5-5-5-5-5-5--
-----------5-5-5-5-5--------------
----------------------------------
----------------------------------
           Gm
-------------------------
-------------------------
-5-7-8-7-5---------------
-----------5-5-5-5-5-5-5-
-------------------------
-------------------------

(Se repite casi lo mismo que en la parte anterior...pero al final se
agrega)
 Gm                       G7
---------------------------------------------------
---------------------------------------------------
-12-0-12-0-12-0-12-0-12-0-16-0-16-0-16-0-16-0-16-0-
---------------------------------------------------
---------------------------------------------------
---------------------------------------------------

C Am Dm G (VI-3-V-0-2-3)
Uuh uuuuh
C Am Dm G Gm
Uuh uuuuh UUUUUUHHHHHHHH

             Cm                                    Cm
---------------------------------------------------------------------
--10-11-10-8---------8---------8--------10-11-10-8-------------------
-8-----------8-8-8-8---8-8-8-8---8-8-8-8-----------7-7-7-7-7-7-7-7-7- X2
---------------------------------------------------------------------
---------------------------------------------------------------------
---------------------------------------------------------------------

              Cm
---17-18-17-15-----------15-----------15----------------
-16-----------16-16-16-16--16-16-16-16--16-16-16-16-16-- |
-------------------------------------------------------- |
-------------------------------------------------------- |
-------------------------------------------------------- |
-------------------------------------------------------- |
               Gm                                        > X2
---17-18-17-15-------------------------                  |
-16------------15-15-15-15-15-15-15-15-                  |
---------------------------------------                  |
---------------------------------------                  |
---------------------------------------                  |
---------------------------------------                  /

Cm Gm
D          D          D          D            Gm
-20-19-18-17-16-15-14-13-12-11-10-9-8-7-6-5-4-3-------------------
-20-19-18-17-16-15-14-13-12-11-10-9-8-7-6-5-4-3--||||-||||-||--||-
-20-19-18-17-16-15-14-13-12-11-10-9-8-7-6-5-4-3--||----||--|||-||-
----------------------------------------------5--|||---||--||-|||-
----------------------------------------------5--||---||||-||--||-
----------------------------------------------3---------------
Suggest correction
Give kudos to tab author, rate the tab!
1 2 3 4 5
comments
print report bad tab
guest
You may want to rate the tab now too:
select rating
Wanna post a correction for this tab? Suggest correction