Oops, an error
Loading. Please wait.

Crazy Amor Tab

8 views 1 this week
no commentswrite comment
1 2 3 4 5
3 more votes to show rating
add to favorites
launch autoscroll
font size
0
reset
how to read this tab
guitar tuner
Autoscroll
slow
fast
+/-
esc
set tempo
stop
---------------------------
-10---12---10--------------
----------------11---------  x2
--------------------12-----
---------------------------
---------------------------


---------------------------
-12---14--12---------------
-------------11------------
-----------------12--------
---------------------14----
---------------------------


---------------------------
--15--12-------------------
---------12--11---9--11--12
---------------------------
---------------------------
---------------------------


---------------------------
---------------------------
-14--12--11----------------
------------12--14--16-12--
---------------------------
---------------------------


--15--14-------------------
---------15----------------
------------14-------------  x2
---------------------------
---------------------------
---------------------------


-17--15--14----------------
------------15-------------
---------------14----------
------------------17--16---
---------------------------
---------------------------


---------------------------
----15-------15------------
-14----16-16----16---14----
------------------------16-(12)
---------------------------
---------------------------


cancion dedicada para candi...
del tebi


ojala les guste como suena el solo tube escchandola como mil
veces xD ahi ven los slide y humer
y al oido la sacan mejor

atte  TEBI...
xau
Suggest correction
Give kudos to tab author, rate the tab!
1 2 3 4 5
comments
print report bad tab
guest
Wanna post a correction for this tab? Suggest correction