Oops, an error
Loading. Please wait.

El Don Tab

23 views 1 this week
no commentswrite comment
1 2 3 4 5
3 more votes to show rating
add to favorites
launch autoscroll
font size
0
reset
how to read this tab
guitar tuner
×
Best way to learn
"El Don"
Autoscroll
slow
fast
+/-
esc
set tempo
stop
Intro: Em

Em           A     Em
El don me quitó la vida
Em           A     Em
El don perdonó mi vida

Am
Sus ojos no temen a Dios
                 Em
Es dueño de este mundo
Am
El mueve los hilos de mi
                 B7
Nadie puede con El vencer
Tu destino es de El
Em


El don me quitó la vida
El don perdonó mi vida

Sus ojos no temen a Dios
Es dueño de este mundo
El mueve los hilos de mi
Nadie puede con El vencer
Tu destino es de El

Solo de trompeta (En guitarra)
Em       Am       G       B7  Em      Am        G      B7
-4-4-5-7-8-7-5-5------5-7-----4-4-5-7-8-7-5-12------5-7----
------------------8-8-----7---------------------8-8-----7--
-----------------------------------------------------------
-----------------------------------------------------------
-----------------------------------------------------------
-----------------------------------------------------------
Em     Am        G     B7          Em    Am         G     B7
-------5---7-5-7---5---7-8-7-5-----------5----7-5-7---5---7--
-5-7-8-----------8---8---------8-7-5-7-8------------8---8----
-------------------------------------------------------------
-------------------------------------------------------------
-------------------------------------------------------------
-------------------------------------------------------------
B7
-19h20-19-17-19-
----------------
----------------
----------------
----------------
----------------

El don me quitó la vida
El don perdonó mi vida

Em
Suggest correction
Give kudos to tab author, rate the tab!
1 2 3 4 5
comments
print report bad tab
guest
You may want to rate the tab now too:
select rating
Wanna post a correction for this tab? Suggest correction