Oops, an error
Loading. Please wait.

Gloria Tab

6 views 1 this week
no commentswrite comment
1 2 3 4 5
3 more votes to show rating
add to favorites
launch autoscroll
font size
0
reset
how to read this tab
guitar tuner
Autoscroll
slow
fast
+/-
esc
set tempo
stop
Help us to improve Ultimate-Guitar.com Take our survey!
×
aqui esta el acordeon pero en version guitarra:

Intro:

e|---8-7---8-7---5
B|-5-----5-----8--  x2

e|---8-7---5----
B|-5-----8---7-5    x3

e|---8-7---5------4
B|-5-----8---4-5?--

Vístete de fiesta?

e|----12-------12------
B|-10----10------------
G|----------12----12-11

e|-------------10-------10-----
B|-------10--------------------
G|-11-12----12----12-11----11-9

e|-----------12-------12------
B|------9-10----10------------
G|-9-11------------12----12-11

Y se repite hasta:

La vida me mata?

e|-12-12-10-12-10---
B|----------------13 x2

e|-12-10---
B|-------13 x4

B|-15-15-13-15-13---
G|----------------16 x2

e|--------10-
B|------9----
G|-9-11------

e|-12-12-10-12-10---
B|----------------13 x2

e|-12-10---
B|-------13 x4

B|-15-15-13-15-13---
G|----------------16 x2


e|--------10-12-19-20-19-17----19-20-19-17----15-17-19---
B|------9-------------------17-------------15----------15
G|-9-11--------------------------------------------------

e|----------19-20-19-17----19-20-19-17----15-17-19---
B|-15-16-17-------------17-------------15----------15

Gloria allá  en el cielo?

e|----12-------12------
B|-10----10------------
G|----------12----12-11

e|-------------10-------10-----
B|-------10--------------------
G|-11-12----12----12-11----11-9

e|-----------12-------12----10
B|------9-10----10------------
G|-9-11------------12----12---

Y termina:

e|---8-7---5----
B|-5-----8---7-5    x3

e|---8-7---5-----
B|-5-----8---4-5?
Suggest correction
Give kudos to tab author, rate the tab!
1 2 3 4 5
comments
print report bad tab
guest
You may want to rate the tab now too:
select rating
Wanna post a correction for this tab? Suggest correction