Oops, an error
Loading. Please wait.

Historia De Un Amor Tab

83 views 1 this week
no commentswrite comment
1 2 3 4 5
3 more votes to show rating
add to favorites
launch autoscroll
font size
0
reset
how to read this tab
guitar tuner
Autoscroll
slow
fast
+/-
esc
set tempo
stop
Help us to improve Ultimate-Guitar.com Take our survey!
×
         Dm                E7          Am Am/G# Am/G Am/F#
---12----13----------------------------12-------------12~-
------15----15-12-13-15----------15-13----13-13-------13~-
------------------------------------------------14-14-14~-
-14---------------------15-14--14-------------------------
----------------------------------------------------------
----------------------------------------------------------
                    G                     F                      E7
--------------------------------------------------------------------
-/13-13-13-13-13-12-15-12-------12--12---13----------------------12-
--------------------------13-14---14--14----14-12-13-14-13-14-13----
--------------------------------------------------------------------
--------------------------------------------------------------------
--------------------------------------------------------------------
                      Am
-------------------------
-15-13h15p13-12----------
----------------14-13-14-
-------------------------
-------------------------
-------------------------
                  Dm           E7
Ya no estás a mi lado, corazón,
                 Am Am/G# Am/G Am/F#
en el alma sólo tengo soledad
                  G
y si ya no puedo verte,
                        F
porque Dios me hizo quererte
                     E7       Am
para hacerme sufrir más...

                    Dm          E7
Siempre fuiste la razón de mi existir,
           Am Am/G# Am/G Am/F#
adorarte para mí fue religión
                       G
en tus besos yo encontraba
                     F
el calor que me brindaba,
E7            Am
el amor y la pasión.

                      Dm
Es la historia de un amor,
                   E7
como no hay otro igual
                      Am Am/G# Am/G Am/F#
Que me hizo comprender todo el bien todo el mal,
                     G
que le dio luz a mi vida,
               C C/B Am
apagandola después.
                    Dm
Ay, qué vida tan oscura,
F                 E7    Am
sin tu amor no viviré!

         Dm                E7          Am Am/G# Am/G Am/F#
---12----13----------------------------12-------------12~-
------15----15-12-13-15----------15-13----13-13-------13~-
------------------------------------------------14-14-14~-
-14---------------------15-14--14-------------------------
----------------------------------------------------------
----------------------------------------------------------
                    G                     F                      E7
--------------------------------------------------------------------
-/13-13-13-13-13-12-15-12-------12--12---13----------------------12-
--------------------------13-14---14--14----14-12-13-14-13-14-13----
--------------------------------------------------------------------
--------------------------------------------------------------------
--------------------------------------------------------------------
                      Am
-------------------------
-15-13h15p13-12----------
----------------14-13-14-
-------------------------
-------------------------
-------------------------


         Dm                E7          Am Am/G# Am/G Am/F#
---12----13-12----------------13-12-12-12-12-10-12-
------15-15-13-15-13-12-13-15----13-13-13-13-12-13-
---------------16-14-13---------------------------- (Se tocan varias
-14------------------------------------------------  veces las notas)
---------------------------------------------------
---------------------------------------------------
                    G                     F                      E7
--------------------------------------------------------------------
-/13-13-13-13-13-12-15-12-------12--12---13----------------------12-
--------------------------13-14---14--14----14-12-13-14-13-14-13----
--------------------------------------------------------------------
--------------------------------------------------------------------
--------------------------------------------------------------------
                      Am
-------------------------
-15-13h15p13-12----------
----------------14-13-14-
-------------------------
-------------------------
-------------------------

Siempre fuiste la razón de mi existir,
adorarte para mí fue religión
en tus besos yo encontraba
el calor que me brindaba,
el amor y la pasión.

Es la historia de un amor,
como no hay otro igual
Que me hizo comprender todo el bien todo el mal,
que le dio luz a mi vida,
apagandola después.
Ay, qué vida tan oscura,
sin tu amor no viviré!
F                      E7
Es la historia de un amor

-------0~--
-------1~--
-------2~--
-------2~--
---3---0~--
-0---4-----
Suggest correction
Give kudos to tab author, rate the tab!
1 2 3 4 5
comments
print report bad tab
guest
You may want to rate the tab now too:
select rating
Wanna post a correction for this tab? Suggest correction