Oops, an error
Loading. Please wait.

Me Tienes Loco Tab

9 views 1 this week
no commentswrite comment
1 2 3 4 5
3 more votes to show rating
add to favorites
launch autoscroll
font size
0
reset
how to read this tab
guitar tuner
Autoscroll
slow
fast
+/-
esc
set tempo
stop
Help us to improve Ultimate-Guitar.com Take our survey!
×
Para JM

e-5-4-3--3-5-3--3---3--3---3--0---0--0---0--2---2--2---2-
B-7-6-5--5-7-5--0---0--0---0--2---2--2---2--3---3--3---3-
G-7-6-5--5-7-5--0-0-0--0-0-0--2-2-2--2-0-2--2-2-2--2-2-2-

e-5-4-3--3-5-3--3---3-3--5--4--3---3-
B-7-6-5--5-7-5--0---0-0--7-76-65-5-3-
G-7-6-5--5-7-5--0-0-0-0--77-66-55--2-

D
Apareciste tu
         G           A            D
en el momento más difícil de mi vida.
         G           A             D
Cuando todas mis esperanzas se perdían.
                 A
Cuando querías decirle a mundo
               G            D   D
que no aguantas más la soledad.
D
Así llegaste tu
       G             A            D
y de repente me brindaste tu sonrisa
       G             A            D
y se acabaron los perjuicios que tenia
                A
por aquellos malos momentos
            G           D  (55-54-52)
que sola no podías olvidar.
Bm                    A
Igual como tu quiero ser muy feliz
G                       D              (55-54-52)
y los dos venimos de una gran decepción
Bm                       A
somos dos mitades que se deben unir.
G                     D    (55-54-52)
No le tengas miedo al amor
(B) B                A
Hay es que tu no sabes
(B) B                A
lo que estoy sintiendo
(B) B                     A
tu vas hacer que estalle pum¡¡¡
       D
de sentimiento.

G               A        D      Bm
Que me vuelve loco con su miradita.
G               A7               D
Que me vuelves loco con tu miradita.

Intermedio:
e---------------------------------------2-----------------
B-0-2-3-0--0-2-33-2-0-2-3-52--2-3-5-3-2---5-3-5-3-2-3-2-0-
G-0-2-2-0--0-2-22-2-0-2-2-22--2-2-2-2-2-------------------

e---------------------------------------2--2----2-----5(S)7-5---
B-0-2-3-0--0-2-33-2-0-2-3-52--2-3-5-3-2-3--3---3-3----5(S)7-5-2-
G-0-2-2-0--0-2-22-2-0-2-2-22--2-2-2-2-2-2--2--2---2-3---------2-
D--------------------------------------------0-----0------------

e----0-----5(S)7-5-2----2-----5(S)7-5------0-----5(S)7-5-2-
B---2-2----5(S)7-5-3---3-3----5(S)7-5-2---2-2----5(S)7-5-3-
G--2---2-2------------2---2-2---------2--2---2-2-----------
D-2-----2------------0-----0------------2-----2------------

Bm-A-Bm-D-A

e--9(S)10--9--9--9-7--9-10--9--5(S)7-5-5-5-3-3-3-2--
B-11(S)12-11-11-11-9-11-12-11--5(S)7-5-5-5-3-3-3-3--

e--9(S)10--9--9--9-7--9-10--9--5(S)7-5-5-5-3-3-3-2--
B-11(S)12-11-11-11-9-11-12-11--5(S)7-5-5-5-3-3-3-3--

D
Apareciste tu
         G           A            D
en el momento más difícil de mi vida.
         G           A             D
Cuando todas mis esperanzas se perdían.
                 A
Cuando querías decirle a mundo
               G            D   D
que no aguantas más la soledad.
D
Así llegaste tu
       G             A            D
y de repente me brindaste tu sonrisa
       G             A            D
y se acabaron los perjuicios que tenia
                A
por aquellos malos momentos
            G           D  (55-54-52)
que sola no podías olvidar.
Bm                    A
Igual como tu quiero ser muy feliz
G                       D              (55-54-52)
y los dos venimos de una gran decepción
Bm                       A
somos dos mitades que se deben unir.
G                     D    (55-54-52)
No le tengas miedo al amor
(B) B                A
Hay es que tu no sabes
(B) B                A
lo que estoy sintiendo
(B) B                     A
tu vas hacer que estalle pum¡¡¡
       D
de sentimiento.

G               A        D      Bm
Que me vuelve loco con su miradita.
G               A7               D
Que me vuelves loco con tu miradita.


Final:
e---------3-5(S)7-5-----5(S)7-5----5(S)7-5-2-
B-0-2-3-2-5-5(S)7-5--2--5(S)7-5-2--5(S)7-5-3-
G-0-2-2-2------------2----------2------------

Recomendación:
Tocar los bajos de cada nota ¡¡

Martin Sandino
Suggest correction
Give kudos to tab author, rate the tab!
1 2 3 4 5
comments
print report bad tab
guest
You may want to rate the tab now too:
select rating
Wanna post a correction for this tab? Suggest correction