Oops, an error
Loading. Please wait.

Gole Goldoone Man Tab

4,180 views 1 this week
1 commentread comment
1 2 3 4 5
excellent!
x 3
add to favorites
launch autoscroll
font size
0
reset
how to read this tab
guitar tuner
Tab Pro tools
  • play this tab
  • loop segment
  • change instrument
  • show fretboard
  • metronome
×
Best way to learn
"Gole Goldoone Man"
Autoscroll
slow
fast
+/-
esc
set tempo
stop
Contributor
Difficulty
intermediate
E|--------|--------|---------8------------|----------------|-------------------|--------|
B|--------|--------|-------------9---6----|-5----6---8-----|-11--11---11--8----|-9------|
G|--------|--------|----------------------|----------------|-------------------|--------|
D|--------|--------|----------------------|----------------|-------------------|--------|
A|--------|--------|----------------------|----------------|-------------------|--------|
E|--------|--------|----------------------|----------------|-------------------|--------|
			go le gol            doo ne man        shi kas te dar      baad 


E|---------8------------|----------------|-------------------|--------|---------8------------|
B|-------------9---6----|-5----6---8-----|-11--11---9---8----|-6------|-------------9---6----|
G|----------------------|----------------|-------------------|--------|----------------------|
D|----------------------|----------------|-------------------|--------|----------------------|
A|----------------------|----------------|-------------------|--------|----------------------|
E|----------------------|----------------|-------------------|--------|----------------------|

	to bi yaa 	taa de lam	na kar de far          yaad           go le shab



E|----------------|-------------------|--------|---------8------------|----------------|
B|-5----6---8-----|-11--11---11--8----|-9------|-------------9---6----|-5----6---8-----|
G|----------------|-------------------|--------|----------------------|----------------|
D|----------------|-------------------|--------|----------------------|----------------|
A|----------------|-------------------|--------|----------------------|----------------|
E|----------------|-------------------|--------|----------------------|----------------|

 boo di ge 	    shab    boo ne mi     de           ki    go le 	shab  boo ro





E|-------------------|--------|------8---9---11---|-9----8---9-----|------6---8---9----|
B|-11--11---9---8----|-6------|-------------------|----------------|-------------------|
G|-------------------|--------|-------------------|----------------|-------------------|
D|-------------------|--------|-------------------|----------------|-------------------|
A|-------------------|--------|-------------------|----------------|-------------------|
E|-------------------|--------|-------------------|----------------|-------------------|
   az shaa  khe chi     de           goo  she ye     aa se   moon         po re ran 



E|-8----6---8-----|------4---6---8----|-6----4---3-----|-3---3----4---6----|-8------|
B|----------------|-------------------|----------------|-------------------|--------|
G|----------------|-------------------|----------------|-------------------|--------|
D|----------------|-------------------|----------------|-------------------|--------|
A|----------------|-------------------|----------------|-------------------|--------|
E|----------------|-------------------|----------------|-------------------|--------|
 gin ka moon		man me se	 taa ri ki	 to mes le mah		 taab



E|------8---9---11---|-13---11--9-----|------6---8---9----|-11---9---8-----|------4---6---8----|
B|-------------------|----------------|-------------------|----------------|-------------------|
G|-------------------|----------------|-------------------|----------------|-------------------|
D|-------------------|----------------|-------------------|----------------|-------------------|
A|-------------------|----------------|-------------------|----------------|-------------------|
E|-------------------|----------------|-------------------|----------------|-------------------|
         a ge baa         daz sa re          zol fe to       nag za re              man mi ram 



E|-6----4---3-----|-3---1----4---3----|-1------|------10-----------|-11---10--8-----|
B|----------------|-------------------|--------|----------11--8----|----------------|
G|----------------|-------------------|--------|-------------------|----------------|
D|----------------|-------------------|--------|-------------------|----------------|
A|----------------|-------------------|--------|-------------------|----------------|
E|----------------|-------------------|--------|-------------------|----------------|
gom mi sham	    too jan ga le       khaab          go le gol       doo ne man 
                       



E|------8------------|-10---8---6-----|------6---5---3----|-5----3---2-----|-2---2----0---2----|
B|----------10--7----|----------------|-------------------|----------------|-------------------|
G|-------------------|----------------|-------------------|----------------|-------------------|
D|-------------------|----------------|-------------------|----------------|-------------------|
A|-------------------|----------------|-------------------|----------------|-------------------|
E|-------------------|----------------|-------------------|----------------|-------------------|
	maa he ei       voo ne man	   az to tan 		haa sho dam 	cho maa hi  yaz 



E|-3------|------10-----------|-11---10--8-----|------8------------|-10---8---6-----|
B|--------|----------11--8----|----------------|----------10--7----|----------------|
G|--------|-------------------|----------------|-------------------|----------------|
D|--------|-------------------|----------------|-------------------|----------------|
A|--------|-------------------|----------------|-------------------|----------------|
E|--------|-------------------|----------------|-------------------|----------------|
    aab 	go le    har 	aa re zoo 		raf te az     ran go boo 


E|------6---5---3----|-5----3---2-----|-2---2----0---2----|-3------|--------|--------|
B|-------------------|----------------|-------------------|--------|--------|--------|
G|-------------------|----------------|-------------------|--------|--------|--------|
D|-------------------|----------------|-------------------|--------|--------|--------|
A|-------------------|----------------|-------------------|--------|--------|--------|
E|-------------------|----------------|-------------------|--------|--------|--------|
       man sho dam 	rood khoo ne   de lam ye mor        daab



E|--------|--------|--------|--------|--------|--------|----------8---11---|-11---10--11--8----|
B|--------|--------|--------|--------|--------|--------|------8------------|-------------------|
G|--------|--------|--------|--------|--------|--------|-------------------|-------------------|
D|--------|--------|--------|--------|--------|--------|-------------------|-------------------|
A|--------|--------|--------|--------|--------|--------|-------------------|-------------------|
E|--------|--------|--------|--------|--------|--------|-------------------|-------------------|
								
								aa se moon    aa bi mi she


E|------8---10--8---6---|-6-----10----|------6---8---6---4---|-4-----8-----|------1---3---6---4-|
B|----------------------|-------------|----------------------|-------------|--------------------|
G|----------------------|-------------|----------------------|-------------|--------------------|
D|----------------------|-------------|----------------------|-------------|--------------------|
A|----------------------|-------------|----------------------|-------------|--------------------|
E|----------------------|-------------|----------------------|-------------|--------------------|
 	am maa go le      khor shid	roo shaa khe haa       ye bid           de lesh mi gi 




E|-3------|----------8---11---|-11---10--11--8----|------8---10--8---6---|-6-----10----|
B|--------|------8------------|-------------------|----------------------|-------------|
G|--------|-------------------|-------------------|----------------------|-------------|
D|--------|-------------------|-------------------|----------------------|-------------|
A|--------|-------------------|-------------------|----------------------|-------------|
E|--------|-------------------|-------------------|----------------------|-------------|
   re		dar re mah      taa bi mi she            am maa go le        mah taab




E|------6---8---6---4---|-4-----8-----|------1---3---6---4---|-3------|------4---3---1----|
B|----------------------|-------------|----------------------|--------|-------------------|
G|----------------------|-------------|----------------------|--------|-------------------|
D|----------------------|-------------|----------------------|--------|-------------------|
A|----------------------|-------------|----------------------|--------|-------------------|
E|----------------------|-------------|----------------------|--------|-------------------|
az ber ke haa               ye aab          baa laa ne mi      re	to ke das 


E|-1---1----3---4----|------3---1--------|----------1---3----|------1------------|
B|-------------------|--------------4----|-4---4-------------|----------4---3----|
G|-------------------|-------------------|-------------------|-------------------|
D|-------------------|-------------------|-------------------|-------------------|
A|-------------------|-------------------|-------------------|-------------------|
E|-------------------|-------------------|-------------------|-------------------|
te koon mi di             be se taa        re joon mi di            mish ko fe 


E|--------------1----|-3------|------4---3---1----|-1---1----3---4----|------3---1--------|
B|-3---3----4--------|--------|-------------------|-------------------|--------------4----|
G|-------------------|--------|-------------------|-------------------|-------------------|
D|-------------------|--------|-------------------|-------------------|-------------------|
A|-------------------|--------|-------------------|-------------------|-------------------|
E|-------------------|--------|-------------------|-------------------|-------------------|
   go laz go le		baagh          vagh ti ke   maa tam mi yaad        do se taa 


E|----------1---3----|------1------------|-------------------|--------|------10-----------|
B|-4---4-------------|----------4---3----|-3---1----4---3----|-1------|----------11--8----|
G|-------------------|-------------------|-------------------|--------|-------------------|
D|-------------------|-------------------|-------------------|--------|-------------------|
A|-------------------|-------------------|-------------------|--------|-------------------|
E|-------------------|-------------------|-------------------|--------|-------------------|
    re kam mi yaad          mi soo ze     sha ghaa ye ghaz     daagh          go le gol 


E|-11---10--8-----|------8------------|-10---8---6-----|------6---5---3----|-5----3---2-----|
B|----------------|----------10--7----|----------------|-------------------|----------------|
G|----------------|-------------------|----------------|-------------------|----------------|
D|----------------|-------------------|----------------|-------------------|----------------|
A|----------------|-------------------|----------------|-------------------|----------------|
E|----------------|-------------------|----------------|-------------------|----------------|
doo ne man               maa he ei         voo ne man		az to tan       haa sho dam 


E|-2---2----0---2----|-3------|------10-----------|-11---10--8-----|------8------------|
B|-------------------|--------|----------11--8----|----------------|----------10--7----|
G|-------------------|--------|-------------------|----------------|-------------------|
D|-------------------|--------|-------------------|----------------|-------------------|
A|-------------------|--------|-------------------|----------------|-------------------|
E|-------------------|--------|-------------------|----------------|-------------------|
cho maa hi yaz 		aab          go le har         aa re zoo	raf te az


 

E|-10---8---6-----|------6---5---3----|-5----3---2-----|-2---2----0---2----|-3------|
B|----------------|-------------------|----------------|-------------------|--------|
G|----------------|-------------------|----------------|-------------------|--------|
D|----------------|-------------------|----------------|-------------------|--------|
A|----------------|-------------------|----------------|-------------------|--------|
E|----------------|-------------------|----------------|-------------------|--------|
ran go boo               man sho dam     rood khoo ne     de lam ye mor      daab


E|--------|--------|--------|
B|--------|--------|--------|
G|--------|--------|--------|
D|--------|--------|--------|
A|--------|--------|--------|
E|--------|--------|--------|

Ebrahim Sadeghian
comments
We did not receive enough feedback on this tab! Please rate:
print report bad tab
1 2 3 4 5
1 comment total.
0 reply
amin121 wrote on April 10 2016, 01:41 pm

goodi goood tnx so very very kiss :)) do more iranian tab tnx <3

I want to post or [tab]
guest
You may want to rate the tab now too:
select rating
Please do not post tabs as comments. Select "correction" instead!