Oops, an error
Loading. Please wait.

There Is Dancing tab

72 views 1 this week
no commentswrite comment
1 2 3 4 5
1 last vote to show rating
add to favorites
×
Save as Personal and add changes to this tab that will be seen only by you. Learn more ›
×
You can save this tab as Personal to edit and correct it or add notes. All changes will be seen only by you. Learn more »
launch autoscroll
font size
0
reset
how to read this tab
guitar tuner
edit
Autoscroll
slow
fast
+/-
esc
set tempo
stop
Author
Difficulty
-----------------------------------------------------------------
         There Is Dancing - Simon Brading
-----------------------------------------------------------------
Tabbed by: PhAntomNewo64
Email: owenpetch@icloud.com
This song is from the NewDay Live 2012 Album
Tuning: EADGbe

**UPDATED VERSES** **RE-ALIGNED CHORUSES**

Intro

e|------------------------------------------------------------------|
B|------------------------------------------------------------------|
G|------------------------------------------------------------------|
D|------------------------------------------------------------------|
A|--7-7--7-7--7-7--7-7--7-7--77-7--7-7--7-7--7--7-------------------|
E|--0-0--0-0--0-0--0-0--0-0--00-0--0-0--0-0--0--0-------------------|

Verse

e|---------------------------------------------------------------|
B|--------------------------------------------------7*-----------|
G|---------------------------------------------------------------|
D|--------------------------------------------------------(x2)---|
A|--7-7--7-7--7-7--7-7--7-7--77-7--7-7--7-7--7-7-----------------|
E|--0-0--0-0--0-0--0-0--0-0--00-0--0-0--0-0--0-0-----------------|

(the 7* is only on the first time)

e|---------------------------------------------------------------|
B|---------------------------------------------------------------|
G|-------------------------9-------------------------------------|
D|-------------------------9----------(Let-Ring)-----------------|
A|-------------------------7-------------------------------------|
E|---------------------------------------------------------------|


Pre-Chorus

e|-----------------------------------------------------------------|
B|-----------------------------------------------------------------|
G|-----6-----6-----8-----6-----------------------------------------|
D|-----7-x5--6-x5--9-x5--6-x5--------------------------------------|
A|-----7-----4-----9-----4-----------------------------------------|
E|-----------------------------------------------------------------|

e|---------------------------------------------------------------|
B|---------------------------------------------------------------|
G|-----6-----9-----6-----7---------------------------------------|
D|-----7-x5--9-x5--6-x8--7-x8------------------------------------|
A|-----7-----7-----4-----5---------------------------------------|
E|---------------------------------------------------------------|

Chorus

e|---------------------------------------------------------------|
B|---------------------------------------------------------------|
G|-----7------9----------------9---------------------------------|
D|-----7-x3---9-x13---(x3)-----9-x13-----------------------------|
A|-----5------7----------------7---------------------------------|
E|---------------------------------------------------------------|

e|---------------------------------------------------------------|
B|---------------------------------------------------------------|
G|-----7------9--------------6--------9--------------------------|
D|-----7-x3---9-x13---(x2)---7--x16---9-x16----------------------|
A|-----5------7--------------7--------7--------------------------|
E|---------------------------------------------------------------|

Verse

e|---------------------------------------------------------------|
B|--------------------------------------------------7*-----------|
G|---------------------------------------------------------------|
D|-------------------------------------------------------(x2)----|
A|--7-7--7-7--7-7--7-7--7-7--77-7--7-7--7-7--7-7-----------------|
E|--0-0--0-0--0-0--0-0--0-0--00-0--0-0--0-0--0-0-----------------|

(the 7* is again only on the first time)

e|---------------------------------------------------------------|
B|---------------------------------------------------------------|
G|-------------------------9-------------------------------------|
D|-------------------------9----------(Let-Ring)-----------------|
A|-------------------------7-------------------------------------|
E|---------------------------------------------------------------|


Pre-Chorus

e|-----------------------------------------------------------------|
B|-----------------------------------------------------------------|
G|-----6-----6-----8-----6-----------------------------------------|
D|-----7-x5--6-x5--9-x5--6-x5--------------------------------------|
A|-----7-----4-----9-----4-----------------------------------------|
E|-----------------------------------------------------------------|

e|---------------------------------------------------------------|
B|---------------------------------------------------------------|
G|-----6-----9-----6-----7---------------------------------------|
D|-----7-x5--9-x5--6-x8--7-x8------------------------------------|
A|-----7-----7-----4-----5---------------------------------------|
E|---------------------------------------------------------------|

Chorus

e|---------------------------------------------------------------|
B|---------------------------------------------------------------|
G|-----7------9----------------9---------------------------------|
D|-----7-x3---9-x13---(x3)-----9-x13-----------------------------|
A|-----5------7----------------7---------------------------------|
E|---------------------------------------------------------------|

e|---------------------------------------------------------------|
B|---------------------------------------------------------------|
G|-----7------9--------------6--------9--------------------------|
D|-----7-x3---9-x13---(x2)---7--x16---9--------------------------|
A|-----5------7--------------7--------7--------------------------|
E|---------------------------------------------------------------|

Pre Dance Bit

e|---------------------------------------------------------------|
B|---------------------------------------------------------------|
G|---------------------------------------------------------------|
D|---------------------------------------------------------------|
A|-------7-7-7-7-7-7-7-7-----------------------------------------|
E|-------0-0-0-0-0-0-0-0-----------------------------------------|

Dance Bit

e|------------------------------------------------------------------|
B|------------------------------------------------------------------|
G|------------------------------------------------------------------|
D|------------------------------------------------------------------|
A|------765-7----------765-7--------------(x2)----------------------|
E|----0-------0-765-7-0------0-765-7--------------------------------|

Post Dance Bit

e|------------------------------------------------------------------|
B|------------------------------------------------------------------|
G|------------------------------------------------------------------|
D|--------------------------------------(x2)------------------------|
A|----7-7--7-7--7-7--7-7--7-7--77-7---------------------------------|
E|----0-0--0-0--0-0--0-0--0-0--00-0---------------------------------|


Verse

e|---------------------------------------------------------------|
B|--------------------------------------------------7*-----------|
G|---------------------------------------------------------------|
D|--------------------------------------------------------(x2)---|
A|--7-7--7-7--7-7--7-7--7-7--77-7--7-7--7-7--7-7-----------------|
E|--0-0--0-0--0-0--0-0--0-0--00-0--0-0--0-0--0-0-----------------|

(the 7* is also only on the first time)

e|---------------------------------------------------------------|
B|---------------------------------------------------------------|
G|-------------------------9-------------------------------------|
D|-------------------------9----------(Let-Ring)-----------------|
A|-------------------------7-------------------------------------|
E|---------------------------------------------------------------|


Pre-Chorus

e|-----------------------------------------------------------------|
B|-----------------------------------------------------------------|
G|-----6-----6-----8-----6-----------------------------------------|
D|-----7-x5--6-x5--9-x5--6-x5--------------------------------------|
A|-----7-----4-----9-----4-----------------------------------------|
E|-----------------------------------------------------------------|

e|---------------------------------------------------------------|
B|---------------------------------------------------------------|
G|-----6-----9-----6-----7---------------------------------------|
D|-----7-x5--9-x5--6-x8--7-x8------------------------------------|
A|-----7-----7-----4-----5---------------------------------------|
E|---------------------------------------------------------------|

Chorus

e|---------------------------------------------------------------|
B|---------------------------------------------------------------|
G|-----7------9----------------9---------------------------------|
D|-----7-x3---9-x13---(x3)-----9-x13-----------------------------|
A|-----5------7----------------7---------------------------------|
E|---------------------------------------------------------------|

e|---------------------------------------------------------------|
B|---------------------------------------------------------------|
G|-----7------9--------------6--------9--------------------------|
D|-----7-x3---9-x13---(x2)---7--x16---9--------------------------|
A|-----5------7--------------7--------7--------------------------|
E|---------------------------------------------------------------|

Rap

e|------------------------------------------------------------------|
B|------------------------------------------------------------------|
G|------------------------------------------------------------------|
D|------------------------------------------------------------------|
A|----7-7--7-7--7-7--7-7--7-7--77-7---------------------------------|
E|----0-0--0-0--0-0--0-0--0-0--00-0---------------------------------|

(Play for whole Rap)


Chorus

e|---------------------------------------------------------------|
B|---------------------------------------------------------------|
G|-----7------9----------------9---------------------------------|
D|-----7-x3---9-x13---(x3)-----9-x13-----------------------------|
A|-----5------7----------------7---------------------------------|
E|---------------------------------------------------------------|

e|---------------------------------------------------------------|
B|---------------------------------------------------------------|
G|-----7------9--------------6--------9--------------------------|
D|-----7-x3---9-x13---(x2)---7--x16---9--------------------------|
A|-----5------7--------------7--------7--------------------------|
E|---------------------------------------------------------------|


Pre Dance Bit

e|---------------------------------------------------------------|
B|---------------------------------------------------------------|
G|---------------------------------------------------------------|
D|---------------------------------------------------------------|
A|-------7-7-7-7-7-7-7-7-----------------------------------------|
E|-------0-0-0-0-0-0-0-0-----------------------------------------|

Dance Bit

e|------------------------------------------------------------------|
B|------------------------------------------------------------------|
G|------------------------------------------------------------------|
D|------------------------------------------------------------------|
A|------765-7----------765-7----------------------------------------|
E|----0-------0-765-7-0------0-765-7--------------------------------|

Repeat to End
Then
Randomly play

e|-------------------------------|
B|-------------------------------|
G|-------------------------------|
D|-------------------------------|
A|--------7-7-7-7-7-7-7----------|
E|--------0-0-0-0-0-0-0----------|

            
            
Suggest correction
Creating personal tab
Creating personal tab
You can edit any tab online and save it as your Personal.

You can edit, replace or remove any tab part or add personal notes – all changes will be seen only by you.

Personal tabs can be accessed anytime from any device, even offline.
Learn more »
Give kudos to tab author, rate the tab!
1 2 3 4 5
comments
print report bad tab
guest
You may want to rate the tab now too:
select rating
Wanna post a correction for this tab? Suggest correction