Oops, an error
Loading. Please wait.

If You Were A Girl tab

16 views 1 this week
no commentswrite comment
1 2 3 4 5
3 more votes to show rating
add to favorites
×
Save as Personal and add changes to this tab that will be seen only by you. Learn more ›
×
You can save this tab as Personal to edit and correct it or add notes. All changes will be seen only by you. Learn more »
launch autoscroll
font size
0
reset
how to read this tab
guitar tuner
edit
Autoscroll
slow
fast
+/-
esc
set tempo
stop
Riff 1 (R1)
e|------------|
B|---3---3----|
G|-0---0------|
D|--3-3-3-3---|
A|------------|
E|------------|

Riff 2 (R2)
e|------------|
B|---1---1----|
G|-0---0------|
D|--2-2-2-2---|
A|------------|
E|------------|

Riff 3 (R3)
e|------------|
B|---1---1----|
G|-0---0------|
D|--1-1-1-1---|
A|------------|
E|------------|

Riff 4 (R4)
e|------------|
B|--2---2-----|
G|1---1-------|
D|-3-3-3-3----|
A|------------|
E|------------|

Riff 5 (R5)
e|------------|
B|--2---2-----|
G|1---1-------|
D|-3-3-3-3----|
A|------------|
E|------------|

Riff 6 (R6)
e|------------|
B|--3---3-----|
G|4---4-------|
D|-5-5-5-5----|
A|------------|
E|------------|

Riff 7 (R7)
e|------------|
B|--1---1-----|
G|2---2-------|
D|-3-3-3-3----|
A|------------|
E|------------|

Riff 8 (R8)
e|------------|
B|--3---5-----|
G|2---2-------|
D|-3-3-3-3----|
A|------------|
E|------------|

[Verse]
R1                     R2
My new outfit doesn't fit right
R3
and the belt's gone
R4
can't get work done
R5                    R6
but I'm sure it isn't me
      R2     R7
it's you
R7                  R2
I can never fall in love right
R3
I shouldn't be here
R4
I've always been here
R5                       R6
with the ones who never see
      R2       R7 R8
me through

[Chorus]
       C
But if you were a girl
            Em  F          C
there might be something there
         C
well if you were a girl
           Em F      C
well then maybe I'd care

[Verse]
R1                               R2
I'll call you Rose, you call me Frankie
R3
I think it reads well
R4
and the retail
R5                        R6
wouldn't spoil things for me
    R2   R7
or you
R1                     R2
Have you ever seen an airplane?
R3
Well I rode one
R4
you should try one
R5                      R6
[ ? ? ? ] or climbing trees
    R2      R7 R8
or do

[Chorus]
       C
But if you were a girl
            Em  F          C
there might be something there
         C
well if you were a girl
           Em F      C
well then maybe I'd care
         C
Yeah if you were a girl
            Em  F          C
there might be something there
         C
well if you were a girl
           Em F      C
well then maybe I'd care

[Break]
C
Em F C
C
Em F C

[Outro] (strummed, staccato)
G
And you don't have to say
             C
anything at all

            
            
Suggest correction
Creating personal tab
Creating personal tab
You can edit any tab online and save it as your Personal.

You can edit, replace or remove any tab part or add personal notes – all changes will be seen only by you.

Personal tabs can be accessed anytime from any device, even offline.
Learn more »
Give kudos to tab author, rate the tab!
1 2 3 4 5
comments
print report bad tab
guest
You may want to rate the tab now too:
select rating
Wanna post a correction for this tab? Suggest correction