Oops, an error
Loading. Please wait.

America bass

version 1
version 1

Whole song

Interactive

916 views 3 this week
2 commentsread comments
1 2 3 4 5
1 last vote to show rating
add to favorites
×
Save as Personal and add changes to this tab that will be seen only by you. Learn more ›
×
You can save this tab as Personal to edit and correct it or add notes. All changes will be seen only by you. Learn more »
launch autoscroll
font size
0
reset
guitar tuner
edit
Autoscroll
slow
fast
+/-
esc
set tempo
stop
Author
Difficulty
Tabbed by: 6METAL6BASSIST6
E-mail: petergriffinav@gmail.com

Tuning: EADG

0:17

Let us be lovers we'll marry our fortunes together

G|------------------------------------------------------------------------------------------------|
D|------------------------------------------------------------------------------------------------|
A|17----------16----------14----------12----------10----------------------------------------------|
E|------------------------------------------------------------------------------------------------|

I've got some real estate here in my bag

G|------------------------------------------------------------------------------------------------|
D|------------------------------------------------------------------------------------------------|
A|17----------16----------14----------14----------------------------------------------------------|
E|------------------------------------------------------------------------------------------------|

                   So we bought a back of cigarettes, and Mrs Wagner's Pies                      And

G|------------------------------------------------------------------------------------------------|
D|------------------------------------------------------------------------------------------------|
A|------------------------------------------------16----------------------14----------------------|
E|------------------------------------------------------------------------------------------------|

Walked off to look for America

G|------------------------------------------------------------------------|
D|------------------------------------------------------------------------|
A|------------------------------------------------------------------------|
E|0-----------10----------5-----------------------------------------------|

G|------------------------------------------------|
D|------------------------------------------------|
A|------------------------------------------------|
E|------------------------------------------------|

0:51

Kathy, I said as we boarded a Greyhound in Pittsburgh

G|19------------------------------------------------------------------------------------------------|
D|------------19----------16------------------16--17------------------------------------------------|
A|------------------------------------17--19------------------17----------14-15-17------17------14--|
E|--------------------------------------------------------------------------------------------------|

Michigan seems like a dream to me now

G|------------------------------------------------------------------------|
D|------------------------12--14--16--16----------------------------------|
A|12----------------------------------------------------------------------|
E|------------14----------------------------------------------------------|

It took me four days to hitchhike from Saginaw

G|------------------------------------------------|
D|----------------------7-------------------------|
A|0---0---0-0-0---4---7---7---0---0---0-7-9---7-/-|
E|------------------------------------------------|

1:09

I've come to look for America

G|---------------------------------------------------------------------------------------|
D|--------21--19--------------21-------------19--------19------------------------19------|
A|19--------19----19--16--19------19--17-------17--17---------17-17--17--17--17------17--|
E|-----------------------------------------------17------------------------17------------|

Laughing on the bus, playing games with the faces

G|---------------------------------------------------------------------------------------------------------|
D|----------------17----------------------17----------------------19----------------21-19-21-19-16---------|
A|15------15--15----------15------15--15----------17------17--17---------17-17--------------------19-17-14-|
E|----------15----------------------15----------------------17---------------------------------------------|

She said the man in the gabardine suit was a spy

G|-------------------------------------------------------------------------19-18--16---------------------|
D|----------------17----------------------17----------------------19-----19-----------19-19-16-----------|
A|15----------15----------15------15--15----------17------17--17------------------------------19-17-14---|
E|----------15----------------------15----------------------17----------------------------------------17-|

I said be careful his bowtie is really a camera

G|------------------------------------------------------------------------------------------------|
D|--------17--17------------------16--16----------------------------------------------------------|
A|----17----------17----------17----------17------------------16----------17----------19----------|
E|15------------------15--14------------------15--17----------------------------------------------|

G|------------------------------------------------|
D|16----------------------16----------------------|
A|------------------------------------------------|
E|------------------------------------------------|

1:45

Toss me a cigarette I think there's one in my raincoat

G|----------------------------------------------------16--17--16--------------16--17--16----------|
D|16------------------------------------------16--17--------------17----------------------17------|
A|------------------------------------17--19--------------------------17----------------------17--|
E|------------------------------------------------------------------------------------------------|

We smoked the last one an hour ago                                                So I looked at the 

G|------------------------------------------------------------------------------------------------|
D|------------------------------------------------------------------------------------------------|
A|------------------------------------------------------------------------------------------------|
E|10----------9-----------7-----------7-----------7-----------7-------5---2-----------------------|

Scenery, she read her magazine                                       And the

G|------------------------------------------------------------------------|
D|------------------------------------------------------------------------|
A|------------------------------------------------------------------------|
E|7-----------------------2-------2-------9-------7-----------------------|

Moon rose over an open field

G|------------------------------------------------------------------------------------------------|
D|14----------------------------------------------------------------------------------------------|
A|------------17----------12--14--16--17----------16----------14----------12----------10----------|
E|------------------------------------------------------------------------------------------------|

G|----------------------------------/-|
D|------------------------------------|
A|------------10----------------------|
E|------------------------------------|

2:20

Kathy I'm lost, I said, though I knew she was sleeping                                             I'm

G|19------------------------------------------------------------------------------------------------|
D|------------19----------16------------------16--17------------------------------------------------|
A|------------------------------------17--19------------------17----------14-15-17------17------14--|
E|--------------------------------------------------------------------------------------------------|

Empty and aching and I don't know why

G|----------------------------------------------------------16--16--------------|
D|------------------------12--14--16--16------------16-19-16------19-16---------|
A|12----------------------------------------------19-------------------19-17-14-|
E|------------14----------------------------------------------------------------|

Counting the cars on the New Jersey Turnpike they've

G|------------------------------------------------|
D|------------------------------------------------|
A|0---4---7---0---4---7---0---4---7---0---4---7-/-|
E|------------------------------------------------|

2:37

All come to look for America

G|------------------------------------------------------------------------------------------|
D|--------21--19------------------21-------------------------------16--19--19-21-19-16------|
A|19--------19----19--16--19--19----19-17------17--17------17--17---------------------19-17-|
E|-----------------------------------------------17----------17-----------------------------|

All come to look for America

G|-------------------------------------------------------------------19------16--16-16------|
D|----21-------19--------------21-----------------------------------------------------18-16-|
A|19------19-19----19--16--19------19-19-17------17--17------17--17-------------------------|
E|-------------------------------------------------17----------17---------------------------|

All come to look for America

G|-----------------------------------------------------------------------------------18--|
D|----21-------19--------------21----------------------------------------16--19--21------|
A|19------19-19----19--16--19------19-19-17------17--17------17--17--19------------------|
E|-------------------------------------------------17------------------------------------|

            
            
Suggest correction
Creating personal tab
Creating personal tab
You can edit any tab online and save it as your Personal.

You can edit, replace or remove any tab part or add personal notes – all changes will be seen only by you.

Personal tabs can be accessed anytime from any device, even offline.
Learn more »
Give kudos to tab author, rate the tab!
1 2 3 4 5
comments
print report bad tab
2 comments total.
+1 reply
sweeney1994 10 May 30, 2017 05:06 AM

Probably the most accurate tab I've ever seen online. Nice job.

guest
You may want to rate the tab now too:
select rating
Wanna post a correction for this tab? Suggest correction