Oops, an error
Loading. Please wait.

El Condor Pasa tab

version 4
version 4

Whole song

Interactive

77,603 views 231 this week
5 commentsread comments
1 2 3 4 5
x 32
add to favorites
×
Save as Personal and add changes to this tab that will be seen only by you. Learn more ›
×
You can save this tab as Personal to edit and correct it or add notes. All changes will be seen only by you. Learn more »
launch autoscroll
font size
0
reset
how to read this tab
guitar tuner
edit
Autoscroll
slow
fast
+/-
esc
set tempo
stop
Author
Difficulty
Artist: Simon and Garfunkel
Song: El Condor Pasa
By: Edgar20393

Intro:
                                             G
e---------------------------------------|-------------|
B-----------------------------------0---|---3---3---0-|
G-------------------0-----0----2--------|-------------|
D----2---1---2---4-----4----------------|-------------|
A-2-------------------------------------|-------------|
E---------------------------------------|-------------|
 I'd rather be a sparrow than a snail      Yes I would
                   Em
e---0--------|----------------|
B------3---0-|--0-------------|
G------------|-----2p0-2p0----|
D------------|--------------2-|
A------------|----------------|
E------------|----------------|
 If I could,   I surely would
                                             G
e-------------------------------------|-------------|
B-----------------------------------0-|---3---3---0-|
G-------------------0-----0----2------|-------------|
D----2---1---2---4-----4--------------|-------------|
A-2-----------------------------------|-------------|
E-------------------------------------|-------------|
 I'd rather be a hammer than a nail      Yes I would
                       Em
e----0-----------|----------------|
B--------3----0--|--0-------------|
G----------------|-----2p0-2p0----|
D----------------|--------------2-|
A----------------|----------------|
E----------------|----------------|
 If I only could,  I surely would

CHORUS:
     C                                G
e---0------0----0---3---3-|--2---0---3---0---------0--------|
B-0----3-----3------------|-----------------3---3-----3---0-|
G-------------------------|---------------------------------|
D-------------------------|---------------------------------|
A-------------------------|---------------------------------|
E-------------------------|---------------------------------|
 Away,I'd rather sail away  Like a swam that's here and gone
            C                             G
e---0--------0-------0------0-----|--0----3----0-----------|
B-0------3--------3------3--------|-----------------3------|
G---------------------------------|------------------------|
D---------------------------------|------------------------|
A---------------------------------|------------------------|
E---------------------------------|------------------------|
 A man gets tied up to the ground   He gives the world
                         Em
e------0-----------|--------------------|
B--3-------3----0--|---0----------------|
G------------------|------2p0-2p0-------|
D------------------|----------------2---|
A------------------|--------------------|
E------------------|--------------------|
 It's saddest sound, It's saddest sound
                                               G
e---------------------------------------|-------------|
B-----------------------------------0---|---3---3---0-|
G-------------------0-----0----2--------|-------------|
D----2---1---2---4-----4----------------|-------------|
A-2-------------------------------------|-------------|
E---------------------------------------|-------------|
 I'd rather be a forest than a street      Yes I would
                     Em
e---0--------|----------------|
B------3---0-|--0-------------|
G------------|-----2p0-2p0----|
D------------|--------------2-|
A------------|----------------|
E------------|----------------|
 If I could,   I surely would
                                               G
e-----------------------------------------|--------------|
B-------------------------------------0---|--3---3---0---|
G-----------------------0------0---2------|--------------|
D-----2----1----2----4------4-------------|--------------|
A--2--------------------------------------|--------------|
E-----------------------------------------|--------------|
 I'd rather feel the earth beneath my feet  Yes I would
                      Em
e----0-----------|----------------|
B--------3----0--|--0-------------|
G----------------|-----2p0-2p0----|
D----------------|--------------2-|
A----------------|----------------|
E----------------|----------------|
 If I only could,  I surely would.


"FINALLY REPEAT THE CHORUS"

Coments: cartablanca_evitaelexeso@hotmail.com
Suggest correction
Creating personal tab
Creating personal tab
You can edit any tab online and save it as your Personal.

You can edit, replace or remove any tab part or add personal notes – all changes will be seen only by you.

Personal tabs can be accessed anytime from any device, even offline.
Learn more »
comments
print report bad tab
5 comments total. Showing first comments.
0 reply
Quintijn 528 Sep 08, 2009 09:41 AM

Fine for me, far of the right tab, but i regonize it.

0 reply
harrytheblurfan 221 Sep 29, 2009 11:22 AM

For the chorus don't do the G-E, instead start on the D note, like so:
CHORUS:
C G
e---0------0----0---3---3-|---3--0---------------0----------|
B-0----3-----3------------|---------3-----3-----------3---0-|
G-------------------------|---------------------------------|
D-------------------------|---------------------------------|
A-------------------------|---------------------------------|
E-------------------------|---------------------------------|
Away,I'd rather sail away Like a swan that's here and gone

For Garfunkel's bit, play it like this:

e---0--------0-------0----3----3--|--0----3----0-----------|
B-0------3--------3---------------|-----------------3------|
G---------------------------------|------------------------|
D---------------------------------|------------------------|
A---------------------------------|------------------------|
E---------------------------------|------------------------|
A man gets tied up to the ground He gives the world

And for the pull offs, only do one pull of, it fits easier with the vocals:

e---0--------|----------------|
B------3---0-|--0------------|
G------------|------2p0------|
D------------|-------------2-|
A------------|---------------|
E------------|---------------|
If I could, I surely would

+1 reply
Atkboy4242 10 Oct 07, 2010 02:03 PM

You should try to tab this out:

http://www.youtube.com/watch?v=1-yxH66-F-Y

It's still Paul Simon playing the same thing except he's doing the whole thing on guitar. Personally, I like this one better than the original. There aren't any flutes of any kind. It's just him doing it. If you can tab that out, that would be awesome.

guest
You may want to rate the tab now too:
select rating
Wanna post a correction for this tab? Suggest correction