Oops, an error
Loading. Please wait.

Feelin Groovy Tab

version 2
version 2

Whole song

Interactive

Video

16,128 views 6 this week
no commentswrite comment
1 2 3 4 5
accurate
x 3
add to favorites
launch autoscroll
font size
0
reset
how to read this tab
guitar tuner
Tab Pro tools
  • play this tab
  • loop segment
  • change instrument
  • show fretboard
  • metronome
×
Best way to learn
"Feelin Groovy"
Autoscroll
slow
fast
+/-
esc
set tempo
stop
Contributor
Difficulty
intermediate
This is a great song to practice pinger picking, and just a great song in general. this 
my first tab so be gentle... the timing is not that great but i tried.

                            Simon and Garfunkel
                              "Feelin Groovy"


e|------0------------------------------------------------|
B|-------------3--------------1--------------0-----------|
G|------------------0----0---------0---------------------|
D|--------------------------------------2----------------|
A|-3----3------2--------------0--------------------------|
E|-------------------------------------------3-----------|
      Slow down,_      you   move   too   fast,_

e|-------0-----------------------------------------------|
B|--------------3--------------1--------------0-------0--|
G|-------------------0----0---------0--------------------|
D|---------------------------------------2---------------|
A|-3-----3------2--------------0-------------------------|
E|--------------------------------------------3-------3--|
      You  got   to   make    the   morning   last._ Just

e|-------0-----------------------------------------------|
B|--------------3--------------1--------------0----------|
G|-------------------0----0---------0--------------------|
D|---------------------------------------2---------------|
A|-3-----3------2--------------0-------------------------|
E|--------------------------------------------3----------|
       kick-in' down     the  cob-ble-  stones_

e|-------0-----------------------------------------------|
B|--------------3--------------1--------------0------0---|
G|-------------------0----0---------0--------------------|
D|---------------------------------------2---------------|
A|-3-----3------2--------------0-------------------------|
E|--------------------------------------------3------3---|
     Look-in' for fun and feelin  -  in'  groov-y.______________Ba da da

e|-------0-----------------------------------------------|
B|--------------3--------------1-------------0-----------|
G|-------------------0----0---------0--------------------|
D|--------------------------------------2----------------|
A|-3-----3------2--------------0-------------------------|
E|-------------------------------------------3-----------|
   da    da     da     da,        Feel-in'  groov - y.______________

e|-------0-----------------------------------------------|
B|--------------3--------------1--------------0------0---|
G|-------------------0----0---------0--------------------|
D|---------------------------------------2---------------|
A|-3-----3------2--------------0-------------------------|
E|--------------------------------------------3------3---|


e|-------0-----------------------------------------------|
B|--------------3--------------1-------------0------0----|
G|-------------------0----0---------0--------------------|
D|--------------------------------------2----------------|
A|-3-----3------2--------------0-------------------------|
E|-------------------------------------------3------3----|
    Hel-lo  lamp - post,        what- cha know-in'

e|-------0-----------------------------------------------|
B|--------------3--------------1--------------0----------|
G|-------------------0----0---------0--------------------|
D|---------------------------------------2---------------|
A|-3-----3------2--------------0-------------------------|
E|--------------------------------------------3----------|
     I've come to watch your  flow - ers  grow - in'.

e|-------0-----------------------------------------------|
B|--------------3--------------1-------------0------0----|
G|-------------------0----0---------0--------------------|
D|--------------------------------------2----------------|
A|-3-----3------2--------------0-------------------------|
E|-------------------------------------------3------3----|
     Ain't-cha got  no   rhymes_________    for me?

e|-------0-----------------------------------------------|
B|--------------3--------------1--------------0----------|
G|-------------------0----0---------0--------------------|
D|---------------------------------------2---------------|
A|-3-----3------2--------------0-------------------------|
E|--------------------------------------------3----------|
      Doot-in' doo-doo,        feel-in'   groov - y._______________

e|-------0-----------------------------------------------|
B|--------------3--------------1-------------0------0----|
G|-------------------0----0---------0--------------------|
D|--------------------------------------2----------------|
A|-3-----3------2--------------0-------------------------|
E|-------------------------------------------3------3----|
   _______________________________                       Da  da  da

e|-------0-----------------------------------------------|
B|--------------3--------------1--------------0------0---|
G|-------------------0----0---------0--------------------|
D|---------------------------------------2---------------|
A|-3-----3------2--------------0-------------------------|
E|--------------------------------------------3------3---|
   da   da     da      da      feel-in'  groov - y.______________

e|-------0-----------------------------------------------|
B|--------------3--------------1-------------0-----------|
G|-------------------0----0---------0--------------------|
D|--------------------------------------2----------------|
A|-3-----3------2--------------0-------------------------|
E|-------------------------------------------3-----------|


e|-------0-----------------------------------------------|
B|--------------3--------------1-------------0------0----|
G|-------------------0----0---------0--------------------|
D|--------------------------------------2----------------|
A|-3-----3------2--------------0-------------------------|
E|-------------------------------------------3------3----|
   no deeds to do,  no   prom-is - es  to   keep.       I'm

e|-------0-----------------------------------------------|
B|--------------3--------------1--------------0----------|
G|-------------------0----0---------0--------------------|
D|---------------------------------------2---------------|
A|-3-----3------2--------------0-------------------------|
E|--------------------------------------------3----------|
   dap-pled and  drow-sy and read-y   tp sleep.  Let the

e|-------0-----------------------------------------------|
B|--------------3--------------1-------------0-----------|
G|-------------------0----0---------0--------------------|
D|--------------------------------------2----------------|
A|-3-----3------2--------------0-------------------------|
E|-------------------------------------------3-----------|
  morn-ing time  drop  all  its    pet-als  on  me.

e|-------0-----------------------------------------------|
B|--------------3--------------1--------------0------0---|
G|-------------------0----0---------0--------------------|
D|---------------------------------------2---------------|
A|-3-----3------2--------------0-------------------------|
E|--------------------------------------------3------3---|
     Life,       I love   you,     All    is  groov    -   y.________

e|-------0-----------------------------------------------|
B|--------------3--------------1-------------0-----------|
G|-------------------0----0---------0--------------------|
D|--------------------------------------2----------------|
A|-3-----3------2--------------0-------------------------|
E|-------------------------------------------3-----------|
   _____________________________

e|-------0-----------------------------------------------|
B|--------------3--------------1--------------0------0---|
G|-------------------0----0---------0--------------------|
D|---------------------------------------2---------------|
A|-3-----3------2--------------0-------------------------|
E|--------------------------------------------3------3---|
      (Hum)_____________________________________________


                            THE END
comments
We did not receive enough feedback on this tab! Please rate:
print report bad tab
1 2 3 4 5
I want to post or [tab]
guest
You may want to rate the tab now too:
select rating
Please do not post tabs as comments. Select "correction" instead!