Oops, an error
Loading. Please wait.

I Am A Rock tab

version 3
version 3

Whole song

Interactive

500 views 9 this week
no commentswrite comment
1 2 3 4 5
3 more votes to show rating
add to favorites
×
Save as Personal and add changes to this tab that will be seen only by you. Learn more ›
×
You can save this tab as Personal to edit and correct it or add notes. All changes will be seen only by you. Learn more »
launch autoscroll
font size
0
reset
how to read this tab
guitar tuner
edit
Autoscroll
slow
fast
+/-
esc
set tempo
stop
I AM A ROCK

As recorded by Simon & Garfunkel
(From the 1966 Album SOUNDS OF SILENCE)

Words and Music by Paul Simon

Transcribed by Slowhand


Gtr I (E A D G B E) - 'Paul Simon - Acoustic Guitar w/ capo 5th fret'
Gtr II (E A D G B E) - 'Paul Simon - Acoustic Guitar'
Gtr III (E A D G B E) - 'Ralph Casale - Electric 12-string Guitar '


 Intro
  Q=110
  C/G                                               N.C.
 4/4
  Gtr I (Ac. Gtr. w/ capo 5th fret)
                   |-3-|                    |-3-|
  Q.   E E S S S S S S S   Q.   E E S S S S S S S   Q.   E H
|------------------------|------------------------|-------------||
|----------0h1-0h1-0h1p0-|----------0h1-0h1-0h1p0-|-------------||
|------------------------|------------------------|-------------||
|----------0h2-0h2-0h2p0-|----------0h2-0h2-0h2p0-|-------------||
|------------------------|------------------------|-------------||
|-3----3-3---------------|-3----3-3---------------|-3----3-3----||


 1st Verse
  C/G                      N.C.
                   |-3-|
  Q.   E E S S S S S S S   Q.   E Q  Q
|------------------------|--------------|
|----------0h1-0h1-0h1p0-|--------------|
|------------------------|--------------|
|----------0h2-0h2-0h2p0-|--------------|
|------------------------|--------------|
|-3----3-3---------------|-3----3-3--3--|


  C/G
                                      |-3-|
  Q  E E +E  E E E   Q.   E E S S S S S S S
|------------------|-------------------------|
|-1----1-(1)---1---|----------0h1-0h1-0h1p0--|
|------------------|-------------------------|
|-2----2-(2)---2---|----------0h2-0h2-0h2p0--|
|------------------|-------------------------|
|----3-------3---3-|-3----3-3----------------|


  G               Am          D
  Gtr I
  Q.   E E E Q     E  E  E  E  E  E  E E
|----------3-3--|--0--0--0--0--2--2--2-2-|
|----------0-0--|--1--1--1--1--3--3--3-3-|
|----------0-0--|--2--2--2--2--2--2--2-2-|
|----------0-0--|--2--2--2--2--0--0--0-0-|
|----------2-2--|--0--0--0--0------------|
|-3----3-3-3-3--|------------------------|
|
| Gtr II (Ac. Gtr.)
| W                E  E  E  E  E  E  E E
|---------------|--1--1--1--1--3--3--3-3-|
|---------------|--3--3--3--3--0--0--0-0-|
|---------------|--2--2--2--2--0--0--0-0-|
|---------------|--0--0--0--0--0--0--0-0-|
|---------------|--------------2--2--2-2-|
|---------------|--------------3--3--3-3-|
|
| Gtr III (El. 12-str. Gtr.)
| W                E  E  E  E  E  E  Q
|---------------|-10---------------------|
|---------------|----10----10-12---------|
|---------------|-------10-------10-12---|
|---------------|------------------------|
|---------------|------------------------|
|---------------|------------------------|


  C             G
 2/4           4/4
   E  E  E  E    E  E  E  E   E   E  E  E
|--0--0--0--0-|--3--3--3--3---3---3--3--3-||
|--1--1--1--1-|--0--0--0--0---0---0--0--0-||
|--0--0--0--0-|--0--0--0--0---0---0--0--0-||
|--2--2--2--2-|--0--0--0--0---0---0--0--0-||
|--3--3--3--3-|--2--2--2--2---2---2--2--2-||
|-------------|--3--3--3--3---3---3--3--3-||
|
|  E  E  E  E    E  E  E  E   E   E  E  E
|--1--1--1--1-|--0--0--0--0---0---0--0--0-||
|--1--1--1--1-|--1--1--1--1---1---1--1--1-||
|--2--2--2--2-|--0--0--0--0---0---0--0--0-||
|--3--3--3--3-|--2--2--2--2---2---2--2--2-||
|--3--3--3--3-|--3--3--3--3---3---3--3--3-||
|--1--1--1--1-|---------------------------||
|
|  E  E  E  E    E  E  E  E  +E   E  E  E
|-13-------13-|-12-------12-(12)----12----||
|-------13----|-------13---------13----13-||
|----14-------|----12---------------------||
|-------------|---------------------------||
|-------------|---------------------------||
|-------------|---------------------------||


 Chorus
  Am          Bm            Am         Bm
   E  E  E  E  E  E  E  E    E  E  E E  E  E  E  E
|--0--0--0--0--2--2--2--2-|--0--0--0-0--2--2--2--2-|
|--1--1--1--1--3--3--3--3-|--1--1--1-1--3--3--3--3-|
|--2--2--2--2--4--4--4--4-|--2--2--2-2--4--4--4--4-|
|--2--2--2--2--4--4--4--4-|--2--2--2-2--4--4--4--4-|
|--0--0--0--0--2--2--2--2-|--0--0--0-0--2--2--2--2-|
|-------------------------|------------------------|
|
|  E  E  E  E  E  E  E  E    E  E  E E  E  E  E  E
|--1--1--1--0-----0--0--0-|--1--1--1-0-----0--0--0-|
|--3--3--3--0-----0--0--0-|--3--3--3-0-----0--0--0-|
|--2--2--2--0-----0--0--0-|--2--2--2-0-----0--0--0-|
|--0--0--0--2-----2--2--2-|--0--0--0-2-----2--2--2-|
|-----------2-----2--2--2-|----------2-----2--2--2-|
|-----------0-----0--0--0-|----------0-----0--0--0-|
|
|  E  E  E  E  E  E  E  E    E  E  Q    E  E  E  E
|-10-------10-12-------12-|-10---------12-------12-|
|-------10----------12----|----10------------12----|
|----10----------12-------|-------10------12-------|
|-------------------------|------------------------|
|-------------------------|------------------------|
|-------------------------|------------------------|


  Am          C             D           G/B   G     G/B   G
   E  E  E  E  E  E  E  E    E  E  E  E  E     E     E     E
|--0--0--0--0--0--0--0--0-|--2--2--2--2--3-----3-----3-----3----|
|--1--1--1--1--1--1--1--1-|--3--3--3--3--0-----0-----0-----0----|
|--2--2--2--2--0--0--0--0-|--2--2--2--2--0-----0-----0-----0----|
|--2--2--2--2--2--2--2--2-|--0--0--0--0--0-----0-----0-----0----|
|--0--0--0--0--3--3--3--3-|--------------2-----2-----2-----2----|
|-------------------------|--------------0-----3-----0-----3----|
|
|  E  E  E  E  E  E  E  E    E  E  E  E  E     E     E     E
|--1--1--1--1--1--1--1--1-|--3--3--3--3--0-----0-----0-----0----|
|--3--3--3--3--1--1--1--1-|--0--0--0--0--1-----1-----1-----1----|
|--2--2--2--2--2--2--2--2-|--0--0--0--0--0-----0-----0-----0----|
|--0--0--0--0--3--3--3--3-|--0--0--0--0--2-----2-----2-----2----|
|--------------3--3--3--3-|--2--2--2--2--0-----3-----0-----3----|
|--------------1--1--1--1-|--3--3--3--3-------------------------|
|
|  E  E  E  E  E  E  E  E    E  E  E  E  S  S  S  S  S  S  S  S
|-10-------10-13-------13-|-15-------15-------15-------15-------|
|-------10----------13----|-------15----15h17----15h17----15h17-|
|----10----------14-------|----16-------------------------------|
|-------------------------|-------------------------------------|
|-------------------------|-------------------------------------|
|-------------------------|-------------------------------------|


                               D
   Q     E  E  E  E  E  E       E  E  E  E  E   E  E E
|--3-----3--3--3--3--3--3----|--2--2--2--2--2---2--2-2-||
|--0-----0--0--0--0--0--0----|--3--3--3--3--3---3--3-3-||
|--0-----0--0--0--0--0--0----|--2--2--2--2--2---2--2-2-||
|--0-----0--0--0--0--0--0----|--0--0--0--0--0---0--0-0-||
|--2-----2--2--2--2--2--2----|-------------------------||
|--3-----3--3--3--3--3--3----|-------------------------||
|
|  Q     E  E  E  E  E  E       Q     E  E +E   E  Q
|--0-----0--0--0--0--0--0----|--3-----3--3-(3)--3--3---||
|--1-----1--1--1--1--1--1----|--0-----0--0-(0)--0--0---||
|--0-----0--0--0--0--0--0----|--0-----0--0-(0)--0--0---||
|--2-----2--2--2--2--2--2----|--0-----0--0-(0)--0--0---||
|--3-----3--3--3--3--3--3----|--2-----2--2-(2)--2--2---||
|----------------------------|--3-----3--3-(3)--3--3---||
|
|  E  E  E  E  E  E  E  S  S    E  E  E  E  E   E  q
|----12----------13----------|----15-------15----------||
|-------13----------13-------|-------15--------15------||
|-12-------12-14-------14s16-|-16-------16--------16---||
|----------------------------|-------------------------||
|----------------------------|-------------------------||
|----------------------------|-------------------------||


 Interlude
  G
   E  E  Q      E   E  E  E    E  E  E  E   E   E  E  E
|--3--3--3------3---3--3--3-|--3--3--3--3---3---3--3--3--|
|--0--0--0------0---0--0--0-|--0--0--0--0---0---0--0--0--|
|--0--0--0------0---0--0--0-|--0--0--0--0---0---0--0--0--|
|--0--0--0------0---0--0--0-|--0--0--0--0---0---0--0--0--|
|--2--2--2------2---2--2--2-|--2--2--2--2---2---2--2--2--|
|--3--3--3------3---3--3--3-|--3--3--3--3---3---3--3--3--|
|
|  E  E  E  E  +E   E  Q       E  E  E  E   E   E  E  E
|--0--0--0--0--(0)--0--0----|--0--0--0--0---0---0--0--0--|
|--1--1--1--1--(1)--1--1----|--1--1--1--1---1---1--1--1--|
|--0--0--0--0--(0)--0--0----|--0--0--0--0---0---0--0--0--|
|--2--2--2--2--(2)--2--2----|--2--2--2--2---2---2--2--2--|
|--3--3--3--3--(3)--3--3----|--3--3--3--3---3---3--3--3--|
|---------------------------|----------------------------|
|
|  E  E  E  E  +E   E  E  E    E  E  E  E  +E   E  E  E
|-12-12-12-12-(12)-12-13-12-|-12-12-12-12-(12)-12-13-12--|
|-13-13-13-13-(13)-13-15-13-|-13-13-13-13-(13)-13-15-13--|
|---------------------------|----------------------------|
|---------------------------|----------------------------|
|---------------------------|----------------------------|
|---------------------------|----------------------------|


  Em
   E  Q    E +E  E E E     E  E E E E E E E
|--0--0----0-(0)-0-0-0-|---0--0-0-0-0-0-0-0-|
|--0--0----0-(0)-0-0-0-|---0--0-0-0-0-0-0-0-|
|--0--0----0-(0)-0-0-0-|---0--0-0-0-0-0-0-0-|
|--2--2----2-(2)-2-2-2-|---2--2-2-2-2-2-2-2-|
|--2--2----2-(2)-2-2-2-|---2--2-2-2-2-2-2-2-|
|--0--0----0-(0)-0-0-0-|---0--0-0-0-0-0-0-0-|
|
|  E  E E  E  E  E E E     E  E E E E E E E
|--0--0-0--0-----0-0-0-|---0--0-0-0-0-0-0-0-|
|--1--1-1--1-----1-1-1-|---1--1-1-1-1-1-1-1-|
|--2--2-2--2-----2-2-2-|---2--2-2-2-2-2-2-2-|
|--2--2-2--2-----2-2-2-|---2--2-2-2-2-2-2-2-|
|--0--0-0--0-----0-0-0-|---0--0-0-0-0-0-0-0-|
|----------------------|--------------------|
|
|  E  Q    E  H           +W
|-10--8---10-12--------|-(12)---------------|
|-12-10---12-13--------|-(13)---------------|
|----------------------|--------------------|
|----------------------|--------------------|
|----------------------|--------------------|
|----------------------|--------------------|


   2nd - 4th Verses
    G                 C/GG
     E  E  E  E  E  E  E  E    E  Q     E +E   E  E E
||---3--3--3--3--3--3--3--3-|--3--3-----3-(3)--3--3-3-|
||o--0--0--0--0--0--0--1--0-|--0--0-----0-(0)--0--0-0-|
||---0--0--0--0--0--0--0--0-|--0--0-----0-(0)--0--0-0-|
||---0--0--0--0--0--0--2--0-|--0--0-----0-(0)--0--0-0-|
||o--2--2--2--2--2--2--x--2-|--2--2-----2-(2)--2--2-2-|
||---3--3--3--3--3--3--3--3-|--3--3-----3-(3)--3--3-3-|
|
|    E  E  E  E  E  E  E  E    E  E  E  E  E   E  E E
||---0--0--0--0-----0--0--0-|--0--0--0--0------0--0-0-|
||o--1--1--1--1-----1--1--1-|--1--1--1--1------1--1-1-|
||---0--0--0--0-----0--0--0-|--0--0--0--0------0--0-0-|
||---2--2--2--2-----2--2--2-|--2--2--2--2------2--2-2-|
||o--3--3--3--3-----3--3--3-|--3--3--3--3------3--3-3-|
||--------------------------|-------------------------|
|
|    E  E  E  E  E  E  E  E    E  E  E  E  E   E  Q
||--12-------12-------12----|----12-------12----------|
||o----13-------13-------13-|-------13--------13------|
||--------12-------12-------|-12-------12--------12---|
||--------------------------|-------------------------|
||o-------------------------|-------------------------|
||--------------------------|-------------------------|


  C                         G                 C/GG
   E  E  E  E  E  E  E  E    E  E  E  E  E  E  E  E
|--0--0--0--0--0--0--0--0-|--3--3--3--3--3--3--3--3-|
|--1--1--1--1--1--1--1--1-|--0--0--0--0--0--0--1--0-|
|--0--0--0--0--0--0--0--0-|--0--0--0--0--0--0--0--0-|
|--2--2--2--2--2--2--2--2-|--0--0--0--0--0--0--2--0-|
|--3--3--3--3--3--3--3--3-|--2--2--2--2--2--2--x--2-|
|-------------------------|--3--3--3--3--3--3--3--3-|
|
|  E  E  E  E  E  E  E  E    E  E  E  E  E  E  E  E
|--1--1--1--1-----1--1--1-|--0--0--0--0-----0--0--0-|
|--1--1--1--1-----1--1--1-|--1--1--1--1-----1--1--1-|
|--2--2--2--2-----2--2--2-|--0--0--0--0-----0--0--0-|
|--3--3--3--3-----3--3--3-|--2--2--2--2-----2--2--2-|
|--3--3--3--3-----3--3--3-|--3--3--3--3-----3--3--3-|
|--1--1--1--1-----1--1--1-|-------------------------|
|
|  E  E  E  E  E  E  E  E    E  E  E  E  E  E  E  E
|-13-------13-------13----|-12-------12-------12----|
|-------13-------13----13-|-------13-------13----13-|
|----14-------14----------|----12-------12----------|
|-------------------------|-------------------------|
|-------------------------|-------------------------|
|-------------------------|-------------------------|


                           Am          D
   E  E  E  E  E  E  E E    E  E  E  E  E  E  E E
|--3--3--3--3--3--3--3-3-|--0--0--0--0--2--2--2-2-|
|--0--0--0--0--0--0--0-0-|--1--1--1--1--3--3--3-3-|
|--0--0--0--0--0--0--0-0-|--2--2--2--2--2--2--2-2-|
|--0--0--0--0--0--0--0-0-|--2--2--2--2--0--0--0-0-|
|--2--2--2--2--2--2--2-2-|--0--0--0--0------------|
|--3--3--3--3--3--3--3-3-|------------------------|
|
|  E  E  E  E  E  E  E E    E  E  E  E  E  E  E E
|--0--0--0--0--0--0--0-0-|--1--1--1--1--3--3--3-3-|
|--1--1--1--1--1--1--1-1-|--3--3--3--3--0--0--0-0-|
|--0--0--0--0--0--0--0-0-|--2--2--2--2--0--0--0-0-|
|--2--2--2--2--2--2--2-2-|--0--0--0--0--0--0--0-0-|
|--3--3--3--3--3--3--3-3-|--------------2--2--2-2-|
|------------------------|--------------3--3--3-3-|
|
|  E  E  E  E  E  E  Q      E  E  E  E  E  E  Q
|----12-------12---------|-10-------10------------|
|-------13-------13------|-------10----12---------|
|-12-------12-------12---|----10----------10-12---|
|------------------------|------------------------|
|------------------------|------------------------|
|------------------------|------------------------|


  C             G
 2/4           4/4
   E  E  E  E    E  E  E  E  E  E  E  E
|--0--0--0--0-|--3--3--3--3--3--3--3--3-||
|--1--1--1--1-|--0--0--0--0--0--0--0--0-||
|--0--0--0--0-|--0--0--0--0--0--0--0--0-||
|--2--2--2--2-|--0--0--0--0--0--0--0--0-||
|--3--3--3--3-|--2--2--2--2--2--2--2--2-||
|-------------|--3--3--3--3--3--3--3--3-||
|
|  E  E  E  E    E  E  E  E  E  E  E  E
|--1--1--1--1-|--0--0--0--0--0--0--0--0-||
|--1--1--1--1-|--1--1--1--1--1--1--1--1-||
|--2--2--2--2-|--0--0--0--0--0--0--0--0-||
|--3--3--3--3-|--2--2--2--2--2--2--2--2-||
|--3--3--3--3-|--3--3--3--3--3--3--3--3-||
|--1--1--1--1-|-------------------------||
|
|  E  E  E  E    E  E  E  E  E  E  E  E
|-13-------13-|-12-------12-------12----||
|-------13----|-------13-------13----13-||
|----14-------|----12-------12----------||
|-------------|-------------------------||
|-------------|-------------------------||
|-------------|-------------------------||


 Chorus
  Am          Bm            Am         Bm
   E  E  E  E  E  E  E  E    E  E  E E  E  E  E  E
|--0--0--0--0--2--2--2--2-|--0--0--0-0--2--2--2--2-|
|--1--1--1--1--3--3--3--3-|--1--1--1-1--3--3--3--3-|
|--2--2--2--2--4--4--4--4-|--2--2--2-2--4--4--4--4-|
|--2--2--2--2--4--4--4--4-|--2--2--2-2--4--4--4--4-|
|--0--0--0--0--2--2--2--2-|--0--0--0-0--2--2--2--2-|
|-------------------------|------------------------|
|
|  E  E  E  E  E  E  E  E    E  E  E E  E  E  E  E
|--1--1--1--0-----0--0--0-|--1--1--1-0-----0--0--0-|
|--3--3--3--0-----0--0--0-|--3--3--3-0-----0--0--0-|
|--2--2--2--0-----0--0--0-|--2--2--2-0-----0--0--0-|
|--0--0--0--2-----2--2--2-|--0--0--0-2-----2--2--2-|
|-----------2-----2--2--2-|----------2-----2--2--2-|
|-----------0-----0--0--0-|----------0-----0--0--0-|
|
|  E  E  E  E  E  E  E  E    E  E  Q    E  E  E  E
|-10-------10-12-------12-|-10---------12-------12-|
|-------10----------12----|----10------------12----|
|----10----------12-------|-------10------12-------|
|-------------------------|------------------------|
|-------------------------|------------------------|
|-------------------------|------------------------|


  Am          C
   E  E  E  E  E  E  E  E
|--0--0--0--0--0--0--0--0-|
|--1--1--1--1--1--1--1--1-|
|--2--2--2--2--0--0--0--0-|
|--2--2--2--2--2--2--2--2-|
|--0--0--0--0--3--3--3--3-|
|-------------------------|
|
|  E  E  E  E  E  E  E  E
|--1--1--1--1--1--1--1--1-|
|--3--3--3--3--1--1--1--1-|
|--2--2--2--2--2--2--2--2-|
|--0--0--0--0--3--3--3--3-|
|--------------3--3--3--3-|
|--------------1--1--1--1-|
|
|  E  E  E  E  E  E  E  E
|-10-------10-13-------13-|
|-------10----------13----|
|----10----------14-------|
|-------------------------|
|-------------------------|
|-------------------------|


  D           G/B   G     G/B   G
   E  E  E  E  E     E     E     E       Q     E  E  E  E  E  E
|--2--2--2--2--3-----3-----3-----3----|--3-----3--3--3--3--3--3-|
|--3--3--3--3--0-----0-----0-----0----|--0-----0--0--0--0--0--0-|
|--2--2--2--2--0-----0-----0-----0----|--0-----0--0--0--0--0--0-|
|--0--0--0--0--0-----0-----0-----0----|--0-----0--0--0--0--0--0-|
|--------------2-----2-----2-----2----|--2-----2--2--2--2--2--2-|
|--------------0-----3-----0-----3----|--3-----3--3--3--3--3--3-|
|
|  E  E  E  E  E     E     E     E       Q     E  E  E  E  E  E
|--3--3--3--3--0-----0-----0-----0----|--0-----0--0--0--0--0--0-|
|--0--0--0--0--1-----1-----1-----1----|--1-----1--1--1--1--1--1-|
|--0--0--0--0--0-----0-----0-----0----|--0-----0--0--0--0--0--0-|
|--0--0--0--0--2-----2-----2-----2----|--2-----2--2--2--2--2--2-|
|--2--2--2--2--0-----3-----0-----3----|--3-----3--3--3--3--3--3-|
|--3--3--3--3-------------------------|-------------------------|
|
|  E  E  E  E  S  S  S  S  S  S  S  S    E  E  E  E  E  E  E  E
|-------15----------15-------15-------|----12-------13----------|
|----15-------15h17----15h17----15h17-|-------13-------13----13-|
|-16-------16-------------------------|-12-------12-------14----|
|-------------------------------------|-------------------------|
|-------------------------------------|-------------------------|
|-------------------------------------|-------------------------|


                           Interlude
  D                         G                         C/G
   E  E  E  E  E  E  E E     E  E  S S  E   S  S  S S  E  E
|--2--2--2--2--2--2--2-2-||--3--3--3-3--3---3--3--3-3--3--3-|
|--3--3--3--3--3--3--3-3-||--0--0--0-0--0---0--0--0-0--1--1-|
|--2--2--2--2--2--2--2-2-||--0--0--0-0--0---0--0--0-0--0--0-|
|--0--0--0--0--0--0--0-0-||--0--0--0-0--0---0--0--0-0--2--2-|
|------------------------||--2--2--2-2--2---2--2--2-2--x--x-|
|------------------------||--3--3--3-3--3---3--3--3-3--3--3-|
|
|  E  E  E  E  E  E  E E     E  E  E    E   E     E    E  E
|--3--3--3--3--3--3--3-3-||--0--0--0----0---0-----0----0--0-|
|--0--0--0--0--0--0--0-0-||--1--1--1----1---1-----1----1--1-|
|--0--0--0--0--0--0--0-0-||--0--0--0----0---0-----0----0--0-|
|--0--0--0--0--0--0--0-0-||--2--2--2----2---2-----2----2--2-|
|--2--2--2--2--2--2--2-2-||--3--3--3----3---3-----3----3--3-|
|--3--3--3--3--3--3--3-3-||---------------------------------|
|
|  E  E  E  E  E  E  Q       E  E  E    E  +E     E    E  E
|-15-------15------------||-12-12-12---12-(12)---12---13-12-|
|----15-------15----15---||-13-13-13---13-(13)---13---15-13-|
|-------16-------16------||---------------------------------|
|------------------------||---------------------------------|
|------------------------||---------------------------------|
|------------------------||---------------------------------|


 1.,2.
  G                           C/G
   S S  E  S S  E   S  S  S S  E  E
|--3-3--3--3-3--3---3--3--3-3--3--3-|
|--0-0--0--0-0--0---0--0--0-0--1--1-|
|--0-0--0--0-0--0---0--0--0-0--0--0-|
|--0-0--0--0-0--0---0--0--0-0--2--2-|
|--2-2--2--2-2--2---2--2--2-2--x--x-|
|--3-3--3--3-3--3---3--3--3-3--3--3-|
|
|  E    E  E    E   E     E    Q
|--0----0--0----0---0-----0----0----|
|--1----1--1----1---1-----1----1----|
|--0----0--0----0---0-----0----0----|
|--2----2--2----2---2-----2----2----|
|--3----3--3----3---3-----3----3----|
|-----------------------------------|
|
|  E    E  E    E  +E     E    E  E
|-12---12-12---12-(12)---12---13-12-|
|-13---13-13---13-(13)---13---15-13-|
|-----------------------------------|
|-----------------------------------|
|-----------------------------------|
|-----------------------------------|


  Em
   E  E E  E  S S S S S S E
|--0--0-0--0--0-0-0-0-0-0-0-|
|--0--0-0--0--0-0-0-0-0-0-0-|
|--0--0-0--0--0-0-0-0-0-0-0-|
|--2--2-2--2--2-2-2-2-2-2-2-|
|--2--2-2--2--2-2-2-2-2-2-2-|
|--0--0-0--0--0-0-0-0-0-0-0-|
|
|  E  E E  E  E   E   E   E
|--0--0-0--0------0---0---0-|
|--1--1-1--1------1---1---1-|
|--2--2-2--2------2---2---2-|
|--2--2-2--2------2---2---2-|
|--0--0-0--0------0---0---0-|
|---------------------------|
|
|  E  Q    E  H
|-10--8---10-12-------------|
|-12-10---12-13-------------|
|---------------------------|
|---------------------------|
|---------------------------|
|---------------------------|


                          3.
                           G                  Am D
                                             2/4
    S  S E E E E E E E  3x  E E E E E E E E   Q  Q
|---0--0-0-0-0-0-0-0-0--||--3-3-3-3-3-3-3-3-|-0--2---|
|---0--0-0-0-0-0-0-0-0-o||--0-0-0-0-0-0-0-0-|-1--3---|
|---0--0-0-0-0-0-0-0-0--||--0-0-0-0-0-0-0-0-|-2--2---|
|---2--2-2-2-2-2-2-2-2--||--0-0-0-0-0-0-0-0-|-2--0---|
|---2--2-2-2-2-2-2-2-2-o||--2-2-2-2-2-2-2-2-|-0------|
|---0--0-0-0-0-0-0-0-0--||--3-3-3-3-3-3-3-3-|--------|
|
|   E    E E E E E E E  3x  E E E E E E E E   Q  Q
|---0----0-0-0-0-0-0-0--||--0-0-0-0---0-0-0-|-1--3---|
|---1----1-1-1-1-1-1-1-o||--1-1-1-1---1-1-1-|-3--0---|
|---2----2-2-2-2-2-2-2--||--0-0-0-0---0-0-0-|-2--0---|
|---2----2-2-2-2-2-2-2--||--2-2-2-2---2-2-2-|-0--0---|
|---0----0-0-0-0-0-0-0-o||--3-3-3-3---3-3-3-|----2---|
|-----------------------||------------------|----3---|
|
|  +W                   3x  W                 W
|-(12)------------------||-12---------------|--------|
|-(13)-----------------o||-13---------------|--------|
|-----------------------||------------------|--------|
|-----------------------||------------------|--------|
|----------------------o||------------------|--------|
|-----------------------||------------------|--------|


                ritardando Q=90
  G             Am   D      C/G
 4/4
  Gtr I
                                             |-3-|
  Q.   E H      H    H      Q.   E E S S S S S S S
|-3----3-3----|-0----2----|-------------------------|
|-0----0-0----|-1----3----|----------0h1-0h1-0h1p0--|
|-0----0-0----|-2----2----|-------------------------|
|-0----0-0----|-2----0----|----------0h2-0h2-0h2p0--|
|-2----2-2----|-0---------|-------------------------|
|-3----3-3----|-----------|-3----3-3----------------|
|
| Gtr II
| Q.   E H      H    H      W
|-0----0-0----|-1----3----|-0-----------------------|
|-1----1-1----|-3----0----|-1-----------------------|
|-0----0-0----|-2----0----|-0-----------------------|
|-2----2-2----|-0----0----|-2-----------------------|
|-3----3-3----|------2----|-3-----------------------|
|-------------|------3----|-------------------------|


                           N.C.
  Gtr I
                   |-3-|
  Q.   E E S S S S S S S   Q.   E H      +W
|------------------------|-------------|--------*|
|----------0h1-0h1-0h1p0-|-------------|--------*|
|------------------------|-------------|--------*|
|----------0h2-0h2-0h2p0-|-------------|--------*|
|------------------------|-------------|--------*|
|-3----3-3---------------|-3----3-3----|-(3)----*|


Duration Legend
---------------
W - whole; H - half; Q - quarter; E - 8th; S - 16th; T - 32nd; X - 64th; a - acciaccatura
+ - note tied to previous; . - note dotted; .. - note double dotted
Uncapitalized letters represent notes that are staccato (1/2 duration)
Irregular groupings are notated above the duration line
Duration letters will always appear directly above the note/fret number it represents the
duration for.  Duration letters with no fret number below them represent rests.  Multi-
bar rests are notated in the form Wxn, where n is the number of bars to rest for.  Low
melody durations appear below the staff

Tablature Legend
----------------
 h   - hammer-on
 p   - pull-off
 b   - bend
 pb  - pre-bend
 r   - bend release (if no number after the r, then release immediately)
 /\  - slide into or out of (from/to "nowhere")
 s   - legato slide
 S   - shift slide
  - natural harmonic
[n]  - artificial harmonic
n(n) - tapped harmonic
 ~   - vibrato
 tr  - trill
 T   - tap
 TP  - trem. picking
 PM  - palm muting
\n/  - tremolo bar dip; n = amount to dip
 \n  - tremolo bar down
 n/  - tremolo bar up
/n\  - tremolo bar inverted dip
 =   - hold bend; also acts as connecting device for hammers/pulls
 <>  - volume swell (louder/softer)
 x   - on rhythm slash represents muted slash
 o   - on rhythm slash represents single note slash

Misc Legend
-----------
 |  - bar
||  - double bar
||o - repeat start
o|| - repeat end
*|  - double bar (ending)
 :  - bar (freetime)
 $  - Segno
 &  - Coda
Tempo markers -  = BPM(8/16=s8/s16), where s8 = swing 8ths, s16 = swing 16ths


            
            
Suggest correction
Creating personal tab
Creating personal tab
You can edit any tab online and save it as your Personal.

You can edit, replace or remove any tab part or add personal notes – all changes will be seen only by you.

Personal tabs can be accessed anytime from any device, even offline.
Learn more »
Give kudos to tab author, rate the tab!
1 2 3 4 5
comments
print report bad tab
guest
You may want to rate the tab now too:
select rating
Wanna post a correction for this tab? Suggest correction