Oops, an error
Loading. Please wait.

Mrs Robinson bass

version 3
version 3

Whole song

Interactive

1,597 views 39 this week
no commentswrite comment
1 2 3 4 5
x 6
add to favorites
×
Save as Personal and add changes to this tab that will be seen only by you. Learn more ›
×
You can save this tab as Personal to edit and correct it or add notes. All changes will be seen only by you. Learn more »
launch autoscroll
font size
0
reset
guitar tuner
backing track
0:00
0:00
edit
Autoscroll
slow
fast
+/-
esc
set tempo
stop
Author
Difficulty
--------------------------------------------------------------------------
                                          Artist - Simon & Garfunkel
                                         ****************************
                                             Song - Mrs Robinson 
                                            *********************
                                           Album - Bookends (1968)
                                          *************************
                                             Tabbed By - Ayreon77
                                            **********************
--------------------------------------------------------------------------
Tuning = Standard             



INTRO
******
G|---------------|
D|-4----2-4----2-|
A|----4------4---|
E|---------------|X4


   Di di di di di di di di di   Doo doo doo doo doo doo doo doo doo 
G|--------------|--------------|------------------------|-------|
D|-4----2-4---2-|-4----2-4---2-|-4----4--------4----4---|---4---|
A|----4-----4---|----4-----4---|----4---4-3-2----22-----|-2---2-|
E|--------------|--------------|----------------------2-|-------|

            Di di di di di di di di di di di di
G|---------|-------|---------------|-----|-----|----------------|-------|--------------|--------|
D|---------|---6-7-|-9-11-12--11-9-|-7---|-7-9-|-7-7-9-7--------|-------|--------------|-9-9-11-|
A|-2-4-6-7-|-9-----|---------------|---9-|-----|---------99---9-|-9-9-7-|-7-9-9--11-11-|--------|
E|---------|-------|---------------|-----|-----|------------9---|--9----|--------------|--------|


-----------------------
00:36
CHORUS
*******
And here's to you Mrs. Robinson................
G|-----------|----------|-----------|----------|---------|----------------------|
D|-7---------|-9-9-11-9-|-7---------|-9-9-11-9-|-12-11-9-|-9-11-12-14-12-11-9---|
A|----7--9-9-|----------|----7--9-9-|----------|---------|--------------------7-|
E|-----------|----------|-----------|----------|---------|----------------------|

God bless you please Mrs. Robinson................
G|-----------|----------|-----------|----------|------------------|------4-|
D|-7---------|-9-9-11-9-|-7---------|-9-9-11-9-|-12-11-9-7-7-9--s-|----4---|
A|----7--9-9-|----------|----7--9-9-|----------|---------------9\-|-2------|
E|-----------|----------|-----------|----------|------------------|--------|


-----------------------
00:57
BREAK
******
G|-------------------|-------------------|
D|-4----2-4------2---|-4----2-4------2---|
A|----4------4-4---4-|----4------4-4---4-|
E|-------------------|-------------------|


-----------------------
01:02
VERSE 1
********
We'd like to know a little bit about you for our files............
G|-------------------|-------------------|------------------------|-------|
D|-4----2-4------2---|-4----2-4------2---|-4----4--------4----4---|---4---|
A|----4------4-4---4-|----4------4-4---4-|----4---4-3-2----22-----|-2---2-|
E|-------------------|-------------------|----------------------2-|-------|

Look around you all you see are sympathetic eyes..................
G|---------|-------|---------------|-----|-----|----------------|-------|--------------|--------|
D|---------|---6-7-|-9-11-12--11-9-|-7---|-7-9-|-7-7-9-7--------|-------|--------------|-9-9-11-|
A|-2-4-6-7-|-9-----|---------------|---9-|-----|---------99---9-|-9-9-7-|-7-9-9--11-11-|--------|
E|---------|-------|---------------|-----|-----|------------9---|--9----|--------------|--------|


-----------------------
01:26
CHORUS
*******
And here's to you Mrs. Robinson................
G|-----------|----------|-----------|----------|---------|----------------------|
D|-7---------|-9-9-11-9-|-7---------|-9-9-11-9-|-12-11-9-|-9-11-12-14-12-11-9---|
A|----7--9-9-|----------|----7--9-9-|----------|---------|--------------------7-|
E|-----------|----------|-----------|----------|---------|----------------------|

God bless you please Mrs. Robinson................
G|-----------|----------|-----------|----------|------------------|------4-|
D|-7---------|-9-9-11-9-|-7---------|-9-9-11-9-|-12-11-9-7-7-9--s-|----4---|
A|----7--9-9-|----------|----7--9-9-|----------|---------------9\-|-2------|
E|-----------|----------|-----------|----------|------------------|--------|


-----------------------
01:48
BREAK
******
G|-------------------|-------------------|
D|-4----2-4------2---|-4----2-4------2---|
A|----4------4-4---4-|----4------4-4---4-|
E|-------------------|-------------------|


-----------------------
01:53
VERSE 2
********
Hide it in a hiding place where no one ever goes............
G|-------------------|-------------------|------------------------|-------|
D|-4----2-4------2---|-4----2-4------2---|-4----4--------4----4---|---4---|
A|----4------4-4---4-|----4------4-4---4-|----4---4-3-2----22-----|-2---2-|
E|-------------------|-------------------|----------------------2-|-------|

It's a little secret just the Robinson' affair..................
G|---------|-------|---------------|-----|-----|----------------|-------|--------------|--------|
D|---------|---6-7-|-9-11-12--11-9-|-7---|-7-9-|-7-7-9-7--------|-------|--------------|-9-9-11-|
A|-2-4-6-7-|-9-----|---------------|---9-|-----|---------99---9-|-9-9-7-|-7-9-9--11-11-|--------|
E|---------|-------|---------------|-----|-----|------------9---|--9----|--------------|--------|


-----------------------
02:17
CHORUS
*******
Koo koo cha choo Mrs. Robinson................
G|-----------|----------|-----------|----------|---------|----------------------|
D|-7---------|-9-9-11-9-|-7---------|-9-9-11-9-|-12-11-9-|-9-11-12-14-12-11-9---|
A|----7--9-9-|----------|----7--9-9-|----------|---------|--------------------7-|
E|-----------|----------|-----------|----------|---------|----------------------|

God bless you please Mrs. Robinson................
G|-----------|----------|-----------|----------|------------------|------4-|
D|-7---------|-9-9-11-9-|-7---------|-9-9-11-9-|-12-11-9-7-7-9--s-|----4---|
A|----7--9-9-|----------|----7--9-9-|----------|---------------9\-|-2------|
E|-----------|----------|-----------|----------|------------------|--------|


-----------------------
02:39
BREAK
******
G|-------------------|-------------------|
D|-4----2-4------2---|-4----2-4------2---|
A|----4------4-4---4-|----4------4-4---4-|
E|-------------------|-------------------|


-----------------------
02:44
VERSE 2
********
Sitting on a sofa on a Sunday afternoon............
G|-------------------|-------------------|------------------------|-------|
D|-4----2-4------2---|-4----2-4------2---|-4----4--------4----4---|---4---|
A|----4------4-4---4-|----4------4-4---4-|----4---4-3-2----22-----|-2---2-|
E|-------------------|-------------------|----------------------2-|-------|

Laugh about it shout about it when you've got to choose..................
G|---------|-------|---------------|-----|-----|----------------|-------|--------------|--------|
D|---------|---6-7-|-9-11-12--11-9-|-7---|-7-9-|-7-7-9-7--------|-------|--------------|-9-9-11-|
A|-2-4-6-7-|-9-----|---------------|---9-|-----|---------99---9-|-9-9-7-|-7-9-9--11-11-|--------|
E|---------|-------|---------------|-----|-----|------------9---|--9----|--------------|--------|


-----------------------
03:08
CHORUS
*******
Where have you gone Joe DiMaggio................
G|-----------|----------|-----------|----------|---------|----------------------|
D|-7---------|-9-9-11-9-|-7---------|-9-9-11-9-|-12-11-9-|-9-11-12-14-12-11-9---|
A|----7--9-9-|----------|----7--9-9-|----------|---------|--------------------7-|
E|-----------|----------|-----------|----------|---------|----------------------|

God bless you please Mrs. Robinson................
G|-----------|----------|-----------|----------|------------------|------4-|
D|-7---------|-9-9-11-9-|-7---------|-9-9-11-9-|-12-11-9-7-7-9--s-|----4---|
A|----7--9-9-|----------|----7--9-9-|----------|---------------9\-|-2------|
E|-----------|----------|-----------|----------|------------------|--------|


-----------------------
03:29
OUTRO
******
G|-------------------|
D|-4----2-4------2---|
A|----4------4-4---4-|
E|-------------------|X4


ENJOY..........

            
            
Suggest correction
Creating personal tab
Creating personal tab
You can edit any tab online and save it as your Personal.

You can edit, replace or remove any tab part or add personal notes – all changes will be seen only by you.

Personal tabs can be accessed anytime from any device, even offline.
Learn more »
comments
print report bad tab
guest
You may want to rate the tab now too:
select rating
Wanna post a correction for this tab? Suggest correction