Oops, an error
Loading. Please wait.

Old Friends Live tab

version 1
version 1

Whole song

Interactive

43,685 views 90 this week
4 commentsread comments
1 2 3 4 5
x 39
add to favorites
×
Save as Personal and add changes to this tab that will be seen only by you. Learn more ›
×
You can save this tab as Personal to edit and correct it or add notes. All changes will be seen only by you. Learn more »
launch autoscroll
font size
0
reset
how to read this tab
guitar tuner
edit
Autoscroll
slow
fast
+/-
esc
set tempo
stop
Author
Capo on fourth fret

[Intro]
    Fmaj7             Cmaj7
e|--0-------------------|
B|--1-----------------0-|
G|--2-----------------0-|
D|--3-----------------2-|     4 X
A|--------------------3-|
E|----------------------|

    Fmaj7       Cmaj7
e|--0-------------------|
B|--1-----------------0-|
G|--2-----------------0-|     2 X
D|--3-----------------2-|
A|--------------------3-|
E|----------------------|
   Old               friends

[Verse]
    Dm7               G7    C     C/B                     Am
e|--------0-----1-------------------------------------------------------|
B|--3-----------------0-----1-----3-----------------3-----1-----------1-|
G|--------0-----2-------------------------------------------------------|
D|--3-----------------------------------------2-----------------2-------|
A|--------------------------0-----2-----3-----------2-----0-------------|
E|--------------------3-------------------------------------------------|
   sat   on    their park  bench like  bookends

    G     C     C/b   Am    Em7   C     G7
e|----------------------------------------------------------------------|
B|--0-----1-----3-----1-----0-----1-----0-----------------0-------------|
G|--------------------------------------------------0-------------------|
D|--------------------------------------------0-------------------------|
A|--------0-----2-----0-----2-----0-----------------------------------2-|
E|--3-----------------------------------3-----------------------3-------|
 A news- pa-   per   blown through the grass             falls    on the

    Am                                  Em/g
e|----------------------------------------------------------------------|
B|--------------1-----------------1-----------------0-----------------0-|
G|--------------------------------------------0-----------------0-------|
D|--------2-----------------2-------------------------------------------|
A|--0-----------------0-------------------------------------------------|
E|--------------------------------------3-----------------3-------------|
   round             toes     of the   high              shoes    of the

    Fmaj7       Cmaj7
e|--0-------------------------------------------------------------------|
B|--1-----------------0-----------------3----------------3--------------|
G|--2-----------------0-----------------0----------------0--------------|
D|--3-----------------2-----------------2----------------2--------------|
A|--------------------3-----------------3----------------3--------------|
E|----------------------------------------------------------------------|
   Old         friends

    Fmaj7             Cmaj7            Dm7               G7
e|--0----------------------------------------0-----1-----1-----3--------|
B|--1-----------------0----------------3-----------------------------3--|
G|--2-----------------0----------------------0-----2--------------------|
D|--3-----------------2----------------3--------------------------------|
A|--------------------3-------------------------------------------------|
E|-------------------------------------------------3--------------------|
   Old               friends          win - ter   com - pa -  nions the

    Fmaj7             Em7              Dm7               G7
e|--0-----------------0----------------------0-----1--------------------|
B|--1-----------------3----------------3-----------------0-----3-----1--|
G|--2-----------------0----------------------0-----2--------------------|
D|--3-----------------2----------------3--------------------------------|
A|--------------------2----------------------------------------2-----0--|
E|--------------------0----------------------------------3--------------|
   Old               men              Lost  in    their o -   ver - coats

    C           C/b   Am
e|--0-------------------------------------------------------------------------------------|
B|--------------3-----1-----------1-----------------1-----------------1-----------------1-|
G|--------------------------------------------2-----------------2-----------------2-------|
D|--------2-----------------2-----------2-----------------------------------2-------------|
A|--3-----------2-----0-----------------------------------0-------------------------------|
E|----------------------------------------------------------------------------------------|
   wai-  ting  for   the   sun                                                          The

    G     C     C/b   C     G7                            Am
e|----------------------------------------------------------------------------------------|
B|--0-----1-----3-----1-----0-----------------------------------------1-----------------1-|
G|--------------------------------------------0-----------------2-----------------2-------|
D|--------------------------------------0-----------------------------------2-------------|
A|--------0-----2-----0-----------0-----------------------0-------------------------------|
E|--3-----------------------3-----------------------3-------------------------------------|
   sounds     of the city              sifting through trees               settles like

    G                                    F
e|--------------------3------------------0----------------------------------------|
B|--0-----------------------0------------1-----------------1----------------------|
G|--------------0-----------------0------2-----------2-----------------2----------|
D|--------0------------------------------3-----3-----------------3----------------|
A|--------------------------------------------------------------------------------|
E|--3-----------------------------------------------------------------------------|
   dust                          on the shoulders                       of the

    Fmaj7             Cmaj7
e|--0---------------------------------------------------------------------|
B|--1-----------------0------------------0-----------------0--------------|
G|--2-----------2-----0------------------0-----------------0--------------|
D|--3-----3-----------2------------------2-----------------2--------------|
A|--------------------3------------------3-----------------3--------------|
E|------------------------------------------------------------------------|
   Old               friends

    Dm7               G7    C     C/b   C
e|--------0-----1-----------------------0----------------------------------|
B|--3-----------------0-----1-----3-----1-----------------------------1----|
G|--------0-----2-----------------------------------------------2----------|
D|--3-----------------------------------------2----------------------------|
A|--------------------------0-----2-----3-----------2-----0----------------|
E|--------------------3----------------------------------------------------|
   Can   you   i -   ma  - gine  us    years from  to  - day

    Em7                                       Cmaj7
e|--------------------------------------------------0-----------------0--------|
B|--------------0-----------------0-----------------------------0--------------|
G|--------0-----------------0-----------------------------0-----------------0--|
D|--0-----------------0--------------------------------------------------------|
A|--------------------------------------------3--------------------------------|
E|--------------------------------------3--------------------------------------|
   sharing     a     park  bench       quietly                              how

    Dm7               G7    C     C/b    Asus4
e|---------------------------------------0-----0-----0-----0--------------|
B|--3-----------3-----0-----1-----3------3-----3-----3-----3--------------|
G|--2-----2------------------------------2-----2-----2-----2--------------|
D|--3------------------------------------2-----2-----2-----2--------------|
A|--------------------------0-----2------0-----0-----0-----0--------------|
E|--------------------3---------------------------------------------------|
   ter - ri  -  bly  strange to  be     seventy

    Fmaj7             Cmaj7              Dm7               G7    C     C/b
e|--0------------------------------------------0-----1-----1-----3--------|
B|--1-----------------0------------------3-----------------------------3--|
G|--2-----------------0------------------------0-----2--------------------|
D|--3-----------------2------------------3--------------------------------|
A|--------------------3------------------------------------------------2--|
E|---------------------------------------------------------3--------------|
   Old               friends            mem - o  -  ry    bru - shes  the

    Am                Em7                Dm7               G7    C     C/b
e|--0-----------------0------------------------0-----1---------------------|
B|--1-----------------3------------------3-----------------0-----1-----3---|
G|--2-----------------0------------------------0-----2---------------------|
D|--2-----------------2------------------3---------------------------------|
A|--0-----------------2------------------------------------------0-----2---|
E|--------------------0------------------------------------3---------------|
   same              years              si  - lent- ly    sha - ring  the

     C          C/b   Am
e|--0---------------------------------------------------------------------------|
B|--------------3-----1----------1--------------------------------1-------------|
G|------------------------------------------------------------------------------|
D|--------2-----------------2----------------2-----------2----------------------|
A|--3-----------2-----0----------------0-----------2-----------2----------------|
E|------------------------------------------------------------------------------|
   same              fears

[Bookends]
    Dm7                                                                     C
e|--------0-----1-----------0-----1-----------0-----1-----------0-----1-----0-------------|
B|--3-----------------3-----------------3-----------------3-----------------------1-------|
G|--------0-----2-----------0-----2-----------0-----2-----------0-----2-----0-----------0-|
D|--3-----------------3-----------------3-----------------3-----------------------2-------|
A|--------------------------------------------------------------------------------------3-|
E|----------------------------------------------------------------------------------------|

    C                 Dm7   F                                         C
e|--------0-----------------------------------------------------------0-------------------|
B|--1-----------1-----3-----1-----------------1-----------1h3---1-----------1-----------1-|
G|--------0-----------------------2-----------------------------------0-----------0-------|
D|--2-----------2-----3-----3-----------3-----------3-----------------------2-----------2-|
A|--------------------------------3-----------------------------------------------3-------|
E|----------------------------------------------------------------------------------------|

    C
e|--------------0-|
B|--------1-------|
G|--0-----------0-|
D|--------2-------|
A|--3-------------|
E|----------------|

    Dm7                                                                     C
e|--------0-----1-----------0-----1-----------0-----1-----------0-----1-----0-------------|
B|--3-----------------3-----------------3-----------------3-----------------------1-------|
G|--------0-----2-----------0-----2-----------0-----2-----------0-----2-----0-----------0-|
D|--3-----------------3-----------------3-----------------3-----------------------2-------|
A|--------------------------------------------------------------------------------------3-|
E|----------------------------------------------------------------------------------------|
   Time  it    was   and   what  a     time  it    was   it    was

    C                 Dm7   F                                         C
e|--------0-----------------------------------------------------------0-------------------|
B|--1-----------1-----3-----1-----------------1-----------3-----1-----------1-----------1-|
G|--------0-----------------------2-----------------------------------0-----------0-------|
D|--2-----------2-----3-----3-----------3-----------3-----------------------2-----------2-|
A|--------------------------------3-----------------------------------------------3-------|
E|----------------------------------------------------------------------------------------|
   a     time  of    in -  no -  cence             a     time  of    con - fi -  den - ces

    C
e|--------------0-|
B|--------1-------|
G|--0-----------0-|
D|--------2-------|
A|--3-------------|
E|----------------|

    Dm7                                                                     C
e|--------0-----1-----------0-----1-----------0-----1-----------0-----1-----0-------------|
B|--3-----------------3-----------------3-----------------3-----------------------1-------|
G|--------0-----2-----------0-----2-----------0-----2-----------0-----2-----0-----------0-|
D|--3-----------------3-----------------3-----------------3-----------------------2-------|
A|--------------------------------------------------------------------------------------3-|
E|----------------------------------------------------------------------------------------|
   Lon   a  -  go    it    must  be                      I     have  a     Phot- to  - graph

    C                 Dm7   F                                         C
e|--------0-----------------------------------------------------------0-------------------|
B|--1-----------1-----3-----1-----------------1-----------3-----1-----------1-------------|
G|--------0-----------------------2-----------------------------------0-------------------|
D|--2-----------2-----3-----3-----------3-----------3-----------------------2-------------|
A|--------------------------------3-------------------------------------------------------|
E|----------------------------------------------------------------------------------------|
   Pre - serve your  me -  mo -  ries              they're all that's left you

    C
e|--------------0-|
B|--------1-------|
G|--0-----------0-|
D|--------2-------|
A|--3-------------|
E|----------------|

    Dm7                                                                     C
e|--------0-----1-----------0-----1-----------0-----1-----------0-----1-----0-------------|
B|--3-----------------3-----------------3-----------------3-----------------------1-------|
G|--------0-----2-----------0-----2-----------0-----2-----------0-----2-----0-----------0-|
D|--3-----------------3-----------------3-----------------3-----------------------2-------|
A|--------------------------------------------------------------------------------------3-|
E|----------------------------------------------------------------------------------------|

************************************

| h  Hammer-on

************************************

            
            
Suggest correction
Creating personal tab
Creating personal tab
You can edit any tab online and save it as your Personal.

You can edit, replace or remove any tab part or add personal notes – all changes will be seen only by you.

Personal tabs can be accessed anytime from any device, even offline.
Learn more »
comments
print report bad tab
4 comments total. Showing first comments.
+2 reply
bollocks 101 94 Feb 15, 2007 03:14 AM

spot on ;)

0 reply
Quintijn 528 Jun 02, 2010 11:08 AM

It seems to me the first two measures are kinda off.

Just play six times the Fmaj7 and the Cmaj7.

The rest is fine. 5/5

0 reply
Wolfie363 55 Aug 03, 2015 07:26 PM

Perfect tab!!!! It's so darn pretty. Thank you.

guest
You may want to rate the tab now too:
select rating
Wanna post a correction for this tab? Suggest correction