Oops, an error
Loading. Please wait.
We have Chord Pro version of Scarborough Fair.
It's the closest thing you can get to the original song and it has interactive parts. Check out the tab »
×

Scarborough Fair tab

version 3
version 3

Whole song

Interactive

Video

  • Breakdown of fingerstyle pattern and chord explanation.
17,789 views 18 this week
no commentswrite comment
1 2 3 4 5
x 3
add to favorites
×
Save as Personal and add changes to this tab that will be seen only by you. Learn more ›
×
You can save this tab as Personal to edit and correct it or add notes. All changes will be seen only by you. Learn more »
launch autoscroll
font size
0
reset
how to read this tab
guitar tuner
edit
Autoscroll
slow
fast
+/-
esc
set tempo
stop
                               Scarborough Fair  
                               Old Friends Tour    

                             Simon and Garfunkel
Lead Guitar (Capo 7)
Slowly



     E  E  E  E  E  E     E  E  E  E  E  E     E  E  E  E  E  E   
E||-----0--------------|-----0--------------|-----0--------------|
B||--------------3-----|--------------0-----|--------------3-----|
G||--------0--------0--|--------2--------2--|--------0--------0--|
D||-----------4--------|-----------2--------|-----------4--------|
A||--0-----------------|--0-----------------|--0-----------------|
E||--------------------|--------------------|--------------------|


  E  E  E  E  E  E       E  E  E  E  E  E     E  E  E  E  E  E   
-----0--------------||------0--------------|-----0--------------|
--------------0-----||---------------3-----|--------------0-----|
--------2--------2--||*--------0--------0--|--------2--------2--|
-----------2--------||*-----------4--------|-----------2--------|
--0-----------------||---0-----------------|--0-----------------|
--------------------||---------------------|--------------------|


  E  E  E  E  E  E     E  E  E  E  E  E     E  E  E  E  E  E   
--------------------|-----0--------------|-----0--------------|
--0--------1--0-----|--------------3-----|--------------0-----|
-----------------0--|--------0--------0--|--------2--------2--|
--------0--2--0-----|-----------4--------|-----------2--------|
-----2--------------|--0-----------------|--0-----------------|
--3-----------------|--------------------|--------------------|


  E  E  E  E  E  E     E  E  E  E  E  E     E  E  E  E  E  E   
-----0--------------|-----0--------------|--0-----2-----------|
--------------1-----|--------------1-----|-----------3--------|
--------0--------0--|--------2--------2--|-----0--------2-----|
-----------2--------|-----------2--------|--------0--------0--|
--3-----------------|--0-----------------|--3-----------------|
--------------------|--------------------|--------------------|


  E  E  E  E  E  E     E  E  E  E  E  E     E  E  E  E  E  E   
-----0--------------|-----0--------------|-----0--------------|
--------------3-----|--------------0-----|--------------3-----|
--------0--------0--|--------2--------2--|--------0--------0--|
-----------4--------|-----------2--------|-----------4--------|
--0-----------------|--0-----------------|--0-----------------|
--------------------|--------------------|--------------------|


  E  E  E  E  E  E     E  E  E  E  E  E     E  E  E  E  E  E   
-----0--------------|-----0--------------|--------------------|
--------1-----------|--------1-----------|-----0--------0-----|
-----------2--------|-----------0-----0--|-----------------0--|
--------------------|--------------------|--------------------|
--0-----------0--2--|--3-----------3-----|--2-----0-----------|
--------------------|--------------------|-----------3--------|


  Q    E   E   Q        Q    H           E  E  E  E  E  E   
---------------------|----------------|-----0--------------|
-------1p--0h--1p----|--0-------------|--------------3-----|
---------------------|----------------|--------0--------0--|
--0----2p--0h--2p----|--0-------------|-----------4--------|
---------------------|----------------|--0-----------------|
---------------------|-------3--------|--------------------|


                       ^                                                    
  E  E  E  E  E  E     H        Q       Q    H           E  E  E  E  E  E   
-----0--------------|--0--------L----|----------------|-----0--------------|
--------------0-----|--1--------L----|----------------|--------------3-----|
--------2--------2--|--0--------L----|----------------|--------0--------0--|
-----------2--------|--2--------L----|----------------|-----------4--------|
--0-----------------|--3--------L----|--2-------------|--0-----------------|
--------------------|----------------|-------3--------|--------------------|


  E  E  E  E  E  E   5x  E  E  E  E  E  E     E  E  E  E  E  E   
-----0---------------||-----0--------------|--------------------|
--------------0------||--------------3-----|--------3--------3--|
--------2--------2--*||--------0--------0--|-----0--------0-----|
-----------2--------*||-----------4--------|-----------4--------|
--0------------------||--0-----------------|--5-----------------|
---------------------||--------------------|--------------------|


                                     ^               
  Q    Q    Q       H        Q       H        Q      
-----------------|----------------|--0--------L----||
------------0----|----------------|--0--------L----||
-------0---------|----------------|--2--------L----||
-----------------|----------------|--2--------L----||
--3--------------|--2--------0----|--0--------L----||
-----------------|----------------|--0--------L----||




Duration Legend
---------------
W - whole
H - half
Q - quarter
E - 8th
S - 16th
T - 32nd
X - 64th
. - note dotted
|-n-|  - n-tuplets


Tablature Legend
----------------
L - tied note
x - dead note
g - grace note
(n) - ghost note
> - accentuded note
NH - natural harmonic
AH - artificial harmonic
TH - tapped harmonic
SH - semi harmonic
PH - pitch harmonic
h - hammer on
p - pull off
b - bend
br - bendRelease
pb - preBend
pbr - preBendRelease
brb - bendReleaseBend
\n/ - tremolo bar dip
\n - tremolo bar dive
-/n - tremolo bar Release up
/n\ - tremolo bar inverted dip
/n - tremolo bar return
-\n - tremolo bar Release down
S - shift slide
s - legato slide
/ -  slide into from below or out of upwards
\ -  slide into from above or out of downwards
~ - vibrato
W - wide vibrato
tr - trill
TP - tremolo picking
T - tapping
S - slap
P - pop
< - fade in
^ - brush up
v - brush down

            
            
Suggest correction
Creating personal tab
Creating personal tab
You can edit any tab online and save it as your Personal.

You can edit, replace or remove any tab part or add personal notes – all changes will be seen only by you.

Personal tabs can be accessed anytime from any device, even offline.
Learn more »
Give kudos to tab author, rate the tab!
1 2 3 4 5
comments
print report bad tab
guest
Wanna post a correction for this tab? Suggest correction