Oops, an error
Loading. Please wait.
We have Chord Pro version of Scarborough Fair.
It's the closest thing you can get to the original song and it has interactive parts. Check out the tab »
×

Scarborough Fair tab

version 4
version 4

Whole song

Interactive

Video

  • Breakdown of fingerstyle pattern and chord explanation.
119,350 views 225 this week
5 commentsread comments
1 2 3 4 5
x 71
add to favorites
×
Save as Personal and add changes to this tab that will be seen only by you. Learn more ›
×
You can save this tab as Personal to edit and correct it or add notes. All changes will be seen only by you. Learn more »
launch autoscroll
font size
0
reset
how to read this tab
guitar tuner
edit
Autoscroll
slow
fast
+/-
esc
set tempo
stop
Scarborough Fair - Simon & Garfunkel
Edit of Eric Beckman's transcription by Lindsay Danger
(Just added some chord names and lyrics)

Chords used:
*    |x04030|
Em   |022000|
C    |032010|
D    |000232|
Am   |002210|

Capo on 7th fret.


 [Intro]
e|---0--------------|---0--------------|-------------------|
B|------------3-----|------------3-----|---0---------------|
G|------0--------0--|------0--------0--|------0------------|
D|---------4--------|---------4--------|-------------------|
A|0-----------------|5-----------------|3-----------2------|
E|------------------|------------------|-------------------|


 [Verse]
 |(*)               |(Asus2)           |(*)Are     you    |
e|---0--------------|---0--------------|---0--------------|
B|------------3-----|------------0-----|------------3-----|
G|------0--------0--|------2--------2--|------0--------0--|
D|---------4--------|---------2--------|---------4--------|
A|0-----------------|0-----------------|0-----------------|
E|------------------|------------------|------------------|


 |(Asus2)Going   to |(C)Scar  bor  ough |
e|---0--------------|-------------------|
B|------------0-----|0--------1--0------|
G|------2--------2--|---0---------------|
D|---------2--------|------0--2--0------|
A|0-----------------|-------------------|
E|------------------|3------------------|


 |(*)Fair ?         |(Asus2)           |(C)Par  sley,     |(Asus2)sage,  rose-|
e|---0--------------|---0--------------|---0--------------|---0---------------|
B|------------3-----|------------0-----|------------1-----|------------0------|
G|------0--------0--|------2--------2--|------0--------0--|------2--------2---|
D|---------4--------|---------2--------|---------2--------|---------2---------|
A|0-----------------|0-----------------|3-----------------|0------------------|
E|------------------|------------------|------------------|-------------------|


 |(C)mary(D)  and   |(*)thyme          |(Asus2)           |
e|0-----2-----------|---0--------------|---0--------------|
B|------------3-----|------------3-----|------------0-----|
G|---0-----2-----2--|-----0--------0---|------2--------2--|
D|------0-----0-----|--------4---------|---------2--------|
A|3-----------------|0-----------------|0-----------------|
E|------------------|------------------|------------------|


 |(*)               |(Asus2)           |(Asus2)Re  mem ber|
e|---0--------------|---0--------------|---0--------------|
B|------------3-----|------------0-----|------------------|
G|------0--------0--|------2--------2--|------2-----------|
D|---------4--------|---------2--------|--------2---------|
A|0-----------------|0-----------------|0----------0---2--|
E|------------------|------------------|------------------|


 |(C)me       to    |one  who  lives   |there             |                   |
e|---0--------------|0-----------------|------------------|-------------------|
B|------------1-----|------3-----1-----|0-----------1-^0--|1-----0------------|
G|------0--------0--|---0-----0-----0--|---0-----0--------|-----------(0)-----|
D|---------2--------|------------------|------0-----2-^0--|2-----0------------|
A|3-----------------|3-----2-----0-----|------------------|-------------------|
E|------------------|------------------|3-----------------|------------3------|


 |(Am)She      once |was        a      |true     love of  |
e|---0--------0-----|------------------|------------------|
B|---------------1--|0-----------1-----|0-----0^1^0-------|
G|------2-----------|---0-----0--------|------------0-----|
D|---------2--------|------0-----2-----|0-----0^2^0-------|
A|0-----------------|------------------|------------2-----|
E|------------------|3-----------------|------------------|


 |(*)mine           |                  |                   ||
e|---0--------------|---0--------------|-------------------||
B|------------3-----|------------3-----|---0---------------||
G|------0--------0--|------0--------0--|------0------------||
D|---------4--------|---------4--------|-------------------||
A|0-----------------|5-----------------|3-----------2------||
E|------------------|------------------|-------------------||




            
            
Suggest correction
Creating personal tab
Creating personal tab
You can edit any tab online and save it as your Personal.

You can edit, replace or remove any tab part or add personal notes – all changes will be seen only by you.

Personal tabs can be accessed anytime from any device, even offline.
Learn more »
comments
print report bad tab
5 comments total. Showing first comments.
+13 reply
VelvetBride 10 Nov 17, 2011 05:52 AM

there is no Em chord in this tab :D it's Asus2 |002200|

0 reply
seboss11 116 Jul 30, 2014 08:34 AM

Awesome tab!!

0 reply
clockwise1041 10 Mar 19, 2017 05:38 AM

sweet thanks......

guest
You may want to rate the tab now too:
select rating
Wanna post a correction for this tab? Suggest correction