Oops, an error
Loading. Please wait.

Song For The Asking tab

version 2
version 2

Whole song

Interactive

23,607 views 69 this week
no commentswrite comment
1 2 3 4 5
x 15
add to favorites
×
Save as Personal and add changes to this tab that will be seen only by you. Learn more ›
×
You can save this tab as Personal to edit and correct it or add notes. All changes will be seen only by you. Learn more »
launch autoscroll
font size
0
reset
how to read this tab
guitar tuner
edit
Autoscroll
slow
fast
+/-
esc
set tempo
stop
Author
Difficulty
intermediate
[Intro]
                                           
    C                                        G
 3/4, . , . , .   , . , . , .   , . , . , .   , . , . , . 
e|-------------|-------------|-------------|-----3---3---| 
B|-----5-------|-3p1-------4b|-------------|-----0---0---| 
G|-----------0-|-----0-------|-------------|-----0---0---| 
D|-3s5---5s3---|-------0-----|-------------|-------------| 
A|-------------|---------3---|-3---2---0---|-------------| 
E|-------------|-------------|-------------|-3-----------| 
                               Here is my    song
 
   F             Am            **            Dm/F
   , . , . , .   , . , . , .   , . , . , .   , . , . , . 
e|-----1---1---|-----0---0---|-----0---0---|-----0---1---| 
B|-----1---1---|-----1---1---|-----1---1---|-3-----------| 
G|-----2---2---|-----2---2---|-----2---2---|-----0---2---| 
D|-3-----------|-----2---2---|-----2---2---|-3-----------| 
A|-------------|-0-----------|-0-----------|-------------| 
E|-------------|-------------|-------------|-------------| 
  For       the asking                      ask me  and
 
                 E             Ddim7         Dm  
   , . , . , .   , . , . , .   , . , . , .   , . , . , . 
e|-------------|-0-----------|-7-------7---|-5-----------| 
B|-0---1---3---|-----0-------|-6-------6---|-6---6-------| 
G|-------------|---------1---|-7-------7---|-----7---7---| 
D|-------------|-------------|-6-------6---|---------7---| 
A|-----0---2---|-------------|-------------|-------------| 
E|-3-----------|-0-----------|-------------|-------------| 
  I       will  play          so            sweetly I'll

                 C (let ring)  F             (let ring)
   , . , . , .   , . , . , .   , . , . , .   , . , . , . 
e|-5-----------|-------------|-1-----------|-------------| 
B|-6---6-------|-------------|-1-----------|-----1-------| 
G|-----7---7---|---------0---|-2-----2-----|-0h2---------| 
D|---------7---|-2---3---2---|-3-------3---|---------3---| 
A|-------------|-3-----------|-------------|-------------| 
E|-------------|-------------|-------------|-------------| 
                make    you   smile

[Verse]
    C       
   , . , . , .   , . , . , .   , . , . , .   , . , . , . 
e|-------------|-------------|-------------|-----3---3---| 
B|-----5-------|-3p1-------4b|-------------|-----0---0---| 
G|-----------0-|-----0-------|-------------|-----0---0---| 
D|-3s5---5s3---|-------0-----|-------------|-------------| 
A|-------------|---------3---|-3---2---0---|-------------| 
E|-------------|-------------|-------------|-3-----------| 
                              This is my    tune
 
   F             Am                          Dm/F
   , . , . , .   , . , . , .   , . , . , .   , . , . , . 
e|-----1---1---|-----0---0---|-----0---0---|-----0---1---| 
B|-----1---1---|-----1---1---|-----1---1---|-3-----------| 
G|-----2---2---|-----2---2---|-----2---2---|-----0---2---| 
D|-3-----------|-----2---2---|-----2---2---|-3-----------| 
A|-------------|-0-----------|-0-----------|-------------| 
E|-------------|-------------|-------------|-------------| 
  For       the taking                      take it don't
 
                 E             Ddim7         Dm  
   , . , . , .   , . , . , .   , . , . , .   , . , . , . 
e|-------------|-0-----------|-7-----------|-----0---1---| 
B|-0---1---3---|-----0-------|-6-----------|-3-----------| 
G|-------------|---------1---|-7-----------|-----0---2---| 
D|-------------|-------------|-6-----------|-3-----------| 
A|-----0---2---|-------------|-------------|-------------| 
E|-3-----------|-0-----------|-------------|-------------| 
  turn         away          I've   been    waiting

                 C             F           
   , . , . , .   , . , . , .   , . , . , .   , . , . , . 
e|---------1---|-0-----0-0---|-1-----1-1---|-------------| 
B|-3-----------|-1-----1-1---|-1-----1-1---|-----1-------| 
G|---------2---|-0-----0-0---|-2-----2-2---|-0h2---------| 
D|-3-----------|-2-----2-2---|-3-----3-3---|---------3---| 
A|-------------|-3-----------|-------------|-------------| 
E|-------------|-------------|-------------|-------------| 
                all      my   life
 
   C                                 Am
   , . , . , .   , . , . , .   , .   , . , . , .
e|-------------|-------------|-----|-----0---0---| 
B|-----5-------|-3p1---------|-----|-----1---1---| 
G|-----------0-|-----0-------|-----|-----2---2---| 
D|-3s5---5s3---|-------0-----|-----|-----2---2---| 
A|-------------|---------3---|-3p2-|-0-----------| 
E|-------------|-------------|-----|-------------| 
                                    Thinking it over  

   Am            Em            E or Em       Edim7
   , . , . , .   , . , . , .   , . , . , .   , . , . , . 
e|-----0---0---|-----0---0---|-----0---0---|-3---3---3---| 
B|-----1---1---|-----0---0---|-----0---0---|-2---2---2---| 
G|-----2---2---|-----0---0---|-----0---0---|-3---3---3---| 
D|-----2---2---|-----2---2---|-----2---2---|-2---2---2---| 
A|-0-----------|-------------|-------------|-------------| 
E|-------------|-0-----------|-0-----------|-------------| 
  I've been     sad                             Thinking
                                                                it over
                G             G7            C
  , . , . , .   , . , . , .   , . , . , .   , . , . , . 
e|-3---3---3---|-------------|-1-----------|-0-----------| 
B|-2---2---2---|-0---1---3---|-------------|-------------| 
G|-3---3---3---|-------------|-----0-------|-----0-------| 
D|-2---2---2---|-------------|---------0---|---------2---| 
A|-------------|-----0---2---|-2-----------|-3-----------| 
E|-------------|-3-----------|-------------|-------------| 
  I've          more than     glad      to  change my ways

   Am            A7            F             Am
   , . , . , .   , . , . , .   , . , . , .   , . , . , . 
e|-------------|-------------|-1-----1-1---|-----0---0---| 
B|-3-----------|-2-----------|-1-----1-1---|-----1---1---| 
G|-----0-------|-----0-------|-2-----2-2---|-----2---2---| 
D|---------0---|---------2---|-3-----3-3---|-----2---2---| 
A|-2-----------|-0-----------|-------------|-0-----------| 
E|-------------|-------------|-------------|-------------| 
                              for the       asking
Suggest correction
Creating personal tab
Creating personal tab
You can edit any tab online and save it as your Personal.

You can edit, replace or remove any tab part or add personal notes – all changes will be seen only by you.

Personal tabs can be accessed anytime from any device, even offline.
Learn more »
comments
print report bad tab
guest
You may want to rate the tab now too:
select rating
Wanna post a correction for this tab? Suggest correction