Oops, an error
Loading. Please wait.

Sound Of Silence Tab

version 5
version 5

Whole song

94 views 94 this week
no commentswrite comment
1 2 3 4 5
2 more votes to show rating
add to favorites
launch autoscroll
font size
0
reset
how to read this tab
guitar tuner
Autoscroll
slow
fast
+/-
esc
set tempo
stop
Help us to improve Ultimate-Guitar.com Take our survey!
×
Author
About this tab version
More precise and accurate and much easier to read. Was this info helpful? Yes No
TITLE: The Sound Of Silence - Lead
ARTIST: Simon and Garfunkel
LENGTH: 3:09 (MAXIMUM DIFFICULTY LEVEL)
TUNING: Standard (E A D G B e)
              
              
   ''''  '''' 
e|-----|-----|
B|-----|-----|
G|-----|-----|
D|-----|-----|
A|-----|-----|
E|-----|-----|



Intro (0:04 - 3:09)
                                                                         
                                                                         
    '   '     '   '       '   '   '   '       '     '     '        '     
e|--------0-----0---0--|----0---0---0---0-|------0----------------------|
B|------------0--------|--0-------0-------|---0--------9--------9-----9-|
G|------8---------8----|------8-------8---|---------0-----8-------10----|
D|---------------------|------------------|-----------------------------|
A|---------------------|------------------|-----------------------------|
E|---------------------|------------------|-----------------------------|


                                                        
                                                        
     '     '     '     '        '     '     '     '     
e|--------------------------|------------0-----0-----0-|
B|------9-----9-----9-----9-|------9-------------------|
G|---8-----0-----8----10----|---8-----8----10----11----|
D|--------------------------|--------------------------|
A|--------------------------|--------------------------|
E|--------------------------|--------------------------|


                                                                           
                                                                           
     '     '     '     '       '   '   '   '   '   '      '   '   '   '    
e|------0-----0-----0-----0-|----0---7---7---0---0-7-0-|----0---0---0---7-|
B|--------------------------|----------7-------7-------|--7-------7-------|
G|--10-----8----10----11----|--8---8-------0-----------|------0-------8---|
D|--------------------------|--------------------------|------------------|
A|--------------------------|--------------------------|------------------|
E|--------------------------|--------------------------|------------------|


                                                                   
                                                                   
    '   '   '   '      '   '   '   '      '   '   '   '   '   '    
e|----7---0---0-7-0-|----0---7---7---7-|----7---7---7---7---7-----|
B|--7-------7-------|--7-------7-------|----------7-------------7-|
G|------0-----------|------8-------9---|--8---8-------9---8-------|
D|------------------|------------------|----------------------8---|
A|------------------|------------------|--------------------------|
E|------------------|------------------|--------------------------|


                                                                   
                                                                   
    '   '   '   '      '   '   '   '       '     '     '     '     
e|------------------|------------------|--------------------------|
B|----7---7---7---7-|----7---7---7---7-|------7-----9-----9-----9-|
G|--0-------0-------|--0-------8-------|---0-----0----10-----8----|
D|------9-------8---|------8-------8---|--------------------------|
A|------------------|------------------|--------------------------|
E|------------------|------------------|--------------------------|


                             
                             
     '     '     '     '     
e|------------0-----0-----0-|
B|------9-------------------|
G|--10-----8----10----11----|
D|--------------------------|
A|--------------------------|
E|--------------------------|


                                                                
                Asus2                                           
        '           '                 '           '             
e|------------0-----0------------------------------------------|
B|------------------0------------------------------------------|
G|-----10-----------8------------------------------------------|
D|-------------------------------------------------------------|
A|-------------------------------------------------------------|
E|-------------------------------------------------------------|


                                                                    
                       G             G        E7sus4      G         
         '             '             '                    '         
e|---------------------------------------------------------------9-|
B|--------------------------------------------------------0--------|
G|---------------------0-------------0--------------------0--------|
D|---------------------0-------------0-------------0------0--------|
A|---------------------8-------------8-------------0------8--------|
E|---------------------9-------------9-------------0------9--------|


                                                             
         C A7sus4      G             G     A5      G     G3  
         '             '             '             '         
e|--------------------------------------------------------9-|
B|--------------------------------------------------------0-|
G|-------0------0------0------------------------------------|
D|-------8------0------0-------------0-------------0--------|
A|-------9------0------8-------------8------0------8--------|
E|-------0------0------9-------------9------0------9--------|


                                                            
         G     G3   Amin          Amin A7sus4   Amin        
         '             '             '             '        
e|---------------------0-------------0-------------0-------|
B|--------------0------7-------------7-------------7-------|
G|--------------0------8-------------8------0------8-------|
D|-------0-------------8-------------8------0------8-------|
A|-------8-------------0-------------0------0------0-------|
E|-------9-------------------------------------------------|


                                            
    Amin   G5 Amin Amin Amin  G/A    C      
       '         '         '         '      
e|-----0---------0----0----0---------0-----|
B|-----7---------7----7----7----0----7-----|
G|-----8----0----8----8----8----0----0-----|
D|-----8----0----8---------8----0----8-----|
A|-----0---------0---------0----0----9-----|
E|-----------------------------------------|


                                                                                        
         C A7sus4      F             F     A5      C      C      C    G/A      C        
         '             '             '             '             '             '        
e|-------0-------------7-------------7-------------0------0------0-------------0-------|
B|-------7-------------7-------------7-------------7------7------7------0------7-------|
G|-------0------0------8-------------8-------------0------0------0------0------0-------|
D|-------8------0------9-------------9-------------8-------------8------0------8-------|
A|-------9------0------9-------------9------0------9-------------9------0------9-------|
E|---------------------7-------------7------0------------------------------------------|


                            
     C D5  C     C  G  F    
     '     '     '     '    
e|---0-----0-----0-----7---|
B|---7-----7-----7--0--7---|
G|---0-----0-----0--0--8---|
D|---8--0--8-----8--0--9---|
A|---9--0--9-----9-----9---|
E|---------------------7---|


                                                             
         F A7sus4      C             C    G/A      C         
         '             '             '             '         
e|-------7-------------0-------------0-------------0--------|
B|-------7-------------7-------------7------0------7--------|
G|-------8------0------0-------------0------0------0------0-|
D|-------9------0------8-------------8------0------8------8-|
A|-------9------0------9-------------9------0------9--------|
E|-------7--------------------------------------------------|


                            
     C G5  F     F A5  F    
     '     '     '     '    
e|---0-----7-----7-----7---|
B|---7-----7-----7-----7---|
G|---0--0--8-----8-----8---|
D|---8--0--9-----9-----9---|
A|---9-----9-----9--0--9---|
E|---------7-----7--0--7---|


                                                                                        
         F E7sus4      F             F      F      F      F      F             C        
         '             '             '             '             '             '        
e|-------7-------------7-------------7------7------7------7------7-------------0-------|
B|-------7-------------7-------------7------7------7------7------7-------------7-------|
G|-------8-------------8-------------8------8------8------8------8-------------0-------|
D|-------9------0------9-------------9------9------9------9------9-------------8-------|
A|-------9------0------9-------------9------9------9------9------9-------------9-------|
E|-------7------0------7-------------7------7------7------7------7---------------------|


                                                                                
     C D5  C     C  C  C       C             C3  C       C     G     G A5  G    
     '     '     '     '       '     '     '     '       '     '     '     '    
e|---0-----0-----0--0--0---|---0--------------0------|-------------------------|
B|---7-----7-----7--7--7---|---7-----------7--7------|---7-----------0---------|
G|---0-----0-----0--0--0---|---0-----------8---------|---0-----0-----0---------|
D|---8--0--8-----8--8--8---|---8--------8--------8---|---8--0--0-----0-----0---|
A|---9--0--9-----9--9--9---|---9--8--0-----------9---|---9-----8--------0--8---|
E|-------------------------|---------------------9---|---------9--------0--9---|


                                                            
         G     A5   Amin          Amin A7sus4   Amin        
         '             '             '             '        
e|---------------------0-------------0-------------0-------|
B|---------------------7-------------7-------------7-------|
G|-------0-------------8-------------8------0------8-------|
D|-------0-------------8-------------8------0------8-------|
A|-------8------0------0-------------0------0------0-------|
E|-------9------0------------------------------------------|


                                            
    Amin    G Amin      Amin      Amin      
       '         '         '         '      
e|-----0---------0---------0---------0-----|
B|-----7----0----7---------7---------7-----|
G|-----8----0----8---------8---------8-----|
D|-----8----0----8---------8---------8-----|
A|-----0---------0---------0---------0-----|
E|-----------------------------------------|


                                                                        
    Amin   G5    G         G   A5    G   G5     G D5  G     G D5  G  G  
       '         '         '         '          '     '     '     '     
e|-----0------------------------------------|---------------------9--9-|
B|-----7------------------------------------|---------0-----0-----0--0-|
G|-----8----0----0---------0---------0----0-|---------0-----0-----0--0-|
D|-----8----0----0---------0---------0----0-|---0--0--0-----0--0--0--0-|
A|-----0---------8---------8----0----8------|---8--0--8-----8--0--8--8-|
E|---------------9---------9----0----9------|---9-----9-----9-----9--9-|


                                                            
         G      G   Amin          Amin A7sus4   Amin        
         '             '             '             '        
e|-------9-------------0-------------0-------------0-------|
B|-------0------0------7-------------7-------------7-------|
G|-------0------0------8-------------8------0------8-------|
D|-------0------0------8-------------8------0------8-------|
A|-------8-------------0-------------0------0------0-------|
E|-------9-------------------------------------------------|


                                             
    Amin    G Amin      Amin    G    C    C  
       '         '         '         '       
e|-----0---------0---------0---------0----0-|
B|-----7----0----7---------7----0----7----7-|
G|-----8----0----8---------8----0----0----0-|
D|-----8----0----8---------8----0----8----8-|
A|-----0---------0---------0---------9----9-|
E|------------------------------------------|


                                                             
         C A7sus4      F             F E7sus4      C      C  
         '             '             '             '         
e|-------0-------------7-------------7-------------0------0-|
B|-------7-------------7-------------7-------------7------7-|
G|-------0------0------8-------------8-------------0------0-|
D|-------8------0------9-------------9------0------8------8-|
A|-------9------0------9-------------9------0------9------9-|
E|---------------------7-------------7------0---------------|


                                     
      C       C   C   C G/A   C   C  
      '       '       '       '      
e|----0-------0---0---0-------0---0-|
B|----7---0---7---7---7---0---7---7-|
G|----0---0---0---0---0---0---0---0-|
D|----8---0---8---8---8---0---8---8-|
A|----9---0---9---9---9---0---9---9-|
E|--------0-------------------------|


                                                             
         C     G5      F             F A7sus4      C      C  
         '             '             '             '         
e|-------0-------------7-------------7-------------0------0-|
B|-------7-------------7-------------7-------------7------7-|
G|-------0------0------8-------------8------0------0------0-|
D|-------8------0------9-------------9------0------8------8-|
A|-------9-------------9-------------9------0------9------9-|
E|---------------------7-------------7----------------------|


                                     
      C G/A   C       C   C  G3   C  
      '       '       '       '      
e|----0-------0-------0---0-------0-|
B|----7---0---7-------7---7---0---7-|
G|----0---0---0-------0---0---0---0-|
D|----8---0---8-------8---8-------8-|
A|----9---0---9-------9---9-------9-|
E|----------------------------------|


                                                             
         C      G      F             F A7sus4      F      F  
         '             '             '             '         
e|-------0-------------7-------------7-------------7------7-|
B|-------7------0------7-------------7-------------7------7-|
G|-------0------0------8-------------8------0------8------8-|
D|-------8------0------9-------------9------0------9------9-|
A|-------9-------------9-------------9------0------9------9-|
E|---------------------7-------------7-------------7------7-|


                                                                                         
         F A7sus4      F             F A7sus4      F      F      F A7sus4      C      C  
         '             '             '             '             '             '         
e|-------7-------------7-------------7-------------7------7------7-------------0------0-|
B|-------7-------------7-------------7-------------7------7------7-------------7------7-|
G|-------8------0------8-------------8------0------8------8------8------0------0------0-|
D|-------9------0------9-------------9------0------9------9------9------0------8------8-|
A|-------9------0------9-------------9------0------9------9------9------0------9------9-|
E|-------7-------------7-------------7-------------7------7------7----------------------|


                                                              
      C G/A   C   C   C G/A   C        C  G          C3  C    
      '       '       '       '        '     '     '     '    
e|----0-------0---0---0-------0----|---0--------------0------|
B|----7---0---7---7---7---0---7----|---7-----------7--7------|
G|----0---0---0---0---0---0---0----|---0--0--------8---------|
D|----8---0---8---8---8---0---8----|---8--0-----8--------8---|
A|----9---0---9---9---9---0---9----|---9--8--0-----------9---|
E|---------------------------------|---------------------9---|


                                                             
         C     G5      G             G E7sus4      G      G  
         '             '             '             '         
e|-----------------------------------9--------------------9-|
B|-------7---------------------------0-------------0------0-|
G|-------0------0------0-------------0-------------0------0-|
D|-------8------0------0-------------0------0------0------0-|
A|-------9-------------8-------------8------0------8------8-|
E|-------9-------------9-------------9------0------9------9-|


                                                             
         G     A5   Amin          Amin A7sus4   Amin   Amin  
         '             '             '             '         
e|---------------------0-------------0-------------0------0-|
B|---------------------7-------------7-------------7------7-|
G|-------0-------------8-------------8------0------8------8-|
D|-------0-------------8-------------8------0------8------8-|
A|-------8------0------0-------------0------0------0------0-|
E|-------9------0-------------------------------------------|


                                             
    Amin    G Amin Amin Amin   D5 Amin Amin  
       '         '         '         '       
e|-----0---------0----0----0---------0----0-|
B|-----7----0----7----7----7---------7----7-|
G|-----8----0----8----8----8---------8----8-|
D|-----8----0----8----8----8----0----8----8-|
A|-----0---------0----0----0----0----0----0-|
E|------------------------------------------|


                                                             
      Amin     G5      G      G      G E7sus4      G      G  
         '             '             '             '         
e|-------0-------------9------9------9-------------9------9-|
B|-------7-------------0------0------0-------------0------0-|
G|-------8------0------0------0------0-------------0------0-|
D|-------8------0------0------0------0------0------0------0-|
A|-------0-------------8------8------8------0------8------8-|
E|---------------------9------9------9------0------9------9-|


                                                             
         G E7sus4      G      G      G E7sus4      G      G  
         '             '             '             '         
e|-------9-------------9------9------9-------------9------9-|
B|-------0-------------0------0------0-------------0------0-|
G|-------0-------------0------0------0-------------0------0-|
D|-------0------0------0------0------0------0------0------0-|
A|-------8------0------8------8------8------0------8------8-|
E|-------9------0------9------9------9------0------9------9-|


                                                             
         G E7sus4   Amin          Amin          Amin   Amin  
         '             '             '             '         
e|-------9-------------0-------------0-------------0------0-|
B|-------0-------------7-------------7------0------7------7-|
G|-------0-------------8-------------8------0------8------8-|
D|-------0------0------8-------------8------0------8------8-|
A|-------8------0------0-------------0------0------0------0-|
E|-------9------0---------------------------0---------------|


                                             
    Amin  G/A Amin      Amin  G/A    C    C  
       '         '         '         '       
e|-----0---------0---------0---------0----0-|
B|-----7----0----7---------7----0----7----7-|
G|-----8----0----8---------8----0----0----0-|
D|-----8----0----8---------8----0----8----8-|
A|-----0----0----0---------0----0----9----9-|
E|------------------------------------------|


                                                                                        
         C      G      F      F      F E7sus4      C             C E7sus4      C        
         '             '             '             '             '             '        
e|-------0-------------7------7------7-------------0-------------0-------------0-------|
B|-------7------0------7------7------7-------------7-------------7-------------7-------|
G|-------0------0------8------8------8-------------0-------------0-------------0-------|
D|-------8------0------9------9------9------0------8-------------8------0------8-------|
A|-------9-------------9------9------9------0------9-------------9------0------9-------|
E|---------------------7------7------7------0---------------------------0------9-------|


                                                            
         C      C      C             C E7sus4      F        
         '             '             '             '        
e|-------0------0------0-------------0-------------7-------|
B|-------7------7------7-------------7-------------7-------|
G|-------0------0------0-------------0-------------8-------|
D|-------8------8------8-------------8------0------9-------|
A|-------9------9------9-------------9------0------9-------|
E|-------9------9------9-------------9------0------7-------|


                                                             
         F E7sus4      C             C E7sus4      C      C  
         '             '             '             '         
e|-------7-------------0-------------0-------------0------0-|
B|-------7-------------7-------------7-------------7------7-|
G|-------8-------------0-------------0-------------0------0-|
D|-------9------0------8-------------8------0------8------8-|
A|-------9------0------9-------------9------0------9------9-|
E|-------7------0---------------------------0------9------9-|


                                                             
         C     D5      F      F      F E7sus4      F      F  
         '             '             '             '         
e|-------0-------------7------7------7-------------7------7-|
B|-------7-------------7------7------7-------------7------7-|
G|-------0-------------8------8------8-------------8------8-|
D|-------8------0------9------9------9------0------9------9-|
A|-------9------0------9------9------9------0------9------9-|
E|-------9-------------7------7------7------0------7------7-|


                             
     F D5  F  F  F     F  F  
     '     '     '     '     
e|---7-----7--7--7-----7--7-|
B|---7-----7--7--7-----7--7-|
G|---8-----8--8--8-----8--8-|
D|---9--0--9--9--9-----9--9-|
A|---9--0--9--9--9--0--9--9-|
E|---7-----7--7--7-----7--7-|


                                                            
         F     A5      C             C A7sus4      C        
         '             '             '             '        
e|-------7-------------0-------------0-------------0-------|
B|-------7-------------7-------------7-------------7-------|
G|-------8-------------0-------------0------0------0-------|
D|-------9-------------8-------------8------0------8-------|
A|-------9------0------9-------------9------0------9-------|
E|-------7------0---------------------------0--------------|


                                                                       
    F3           C  G    A5    Amin         C         C   D5    C      
     '     '     '     '          '         '         '         '      
e|---------------0----------|-----0---------0---------0---------------|
B|---------------7----------|-----7----7----7---------7---------7-----|
G|---8--0--------0--0-----8-|-----8---------0---------0---------0-----|
D|---9--8--------8--0-----8-|-----8---------8---------8----0----8-----|
A|---------9-----9--8--0----|-----0---------9---------9----0----9-----|
E|--------------------------|-----------------------------------------|


                             
     C D5 G5     G     G G3  
     '     '     '     '     
e|---0--------------------9-|
B|---7-----------------0--0-|
G|---0-----0-----0-----0----|
D|---8--0--0-----0-----0----|
A|---9--0--------8-----8----|
E|---------------9--0--9----|


                                                             
         G          Amin          Amin A7sus4   Amin   Amin  
         '             '             '             '         
e|-------9-------------0-------------0-------------0------0-|
B|-------0-------------7-------------7-------------7------7-|
G|-------0-------------8-------------8------0------8------8-|
D|-------0-------------8-------------8------0------8------8-|
A|-------8-------------0-------------0------0------0------0-|
E|-------9--------------------------------------------------|


                                                             
      Amin E7sus4   Amin   Amin   Amin      G   Amin   Amin  
         '             '             '             '         
e|-------0-------------0------0------0-------------0------0-|
B|-------7-------------7------7------7------0------7------7-|
G|-------8-------------8------8------8------0------8------8-|
D|-------8------0------8------8------8------0------8------8-|
A|-------0------0------0------0------0-------------0------0-|
E|--------------0-------------------------------------------|


                                                                        
    Amin   D5    G         G   A5    G   G5     G D5  G     G D5  G  G  
       '         '         '         '          '     '     '     '     
e|-----0------------------------------------|---------------------9--9-|
B|-----7------------------------------------|---------0-----0-----0--0-|
G|-----8---------0---------0---------0----0-|---------0-----0-----0--0-|
D|-----8----0----0---------0---------0----0-|---0--0--0-----0--0--0--0-|
A|-----0----0----8---------8----0----8------|---8--0--8-----8--0--8--8-|
E|---------------9---------9----0----9------|---9-----9-----9-----9--9-|


                                                            
         G      G   Amin          Amin A7sus4   Amin        
         '             '             '             '        
e|-------9-------------0-------------0-------------0-------|
B|-------0------0------7-------------7-------------7-------|
G|-------0------0------8-------------8------0------8-------|
D|-------0------0------8-------------8------0------8-------|
A|-------8-------------0-------------0------0------0-------|
E|-------9-------------------------------------------------|


                                             
    Amin    G Amin      Amin    G    C    C  
       '         '         '         '       
e|-----0---------0---------0---------0----0-|
B|-----7----0----7---------7----0----7----7-|
G|-----8----0----8---------8----0----0----0-|
D|-----8----0----8---------8----0----8----8-|
A|-----0---------0---------0---------9----9-|
E|------------------------------------------|


                                                             
         C A7sus4      F             F E7sus4      C      C  
         '             '             '             '         
e|-------0-------------7-------------7-------------0------0-|
B|-------7-------------7-------------7-------------7------7-|
G|-------0------0------8-------------8-------------0------0-|
D|-------8------0------9-------------9------0------8------8-|
A|-------9------0------9-------------9------0------9------9-|
E|---------------------7-------------7------0---------------|


                                     
      C       C   C   C G/A   C   C  
      '       '       '       '      
e|----0-------0---0---0-------0---0-|
B|----7---0---7---7---7---0---7---7-|
G|----0---0---0---0---0---0---0---0-|
D|----8---0---8---8---8---0---8---8-|
A|----9---0---9---9---9---0---9---9-|
E|--------0-------------------------|


                                                             
         C     G5      F             F A7sus4      C      C  
         '             '             '             '         
e|-------0-------------7-------------7-------------0------0-|
B|-------7-------------7-------------7-------------7------7-|
G|-------0------0------8-------------8------0------0------0-|
D|-------8------0------9-------------9------0------8------8-|
A|-------9-------------9-------------9------0------9------9-|
E|---------------------7-------------7----------------------|


                                     
      C G/A   C       C   C  G3   C  
      '       '       '       '      
e|----0-------0-------0---0-------0-|
B|----7---0---7-------7---7---0---7-|
G|----0---0---0-------0---0---0---0-|
D|----8---0---8-------8---8-------8-|
A|----9---0---9-------9---9-------9-|
E|----------------------------------|


                                                             
         C      G      F             F A7sus4      F      F  
         '             '             '             '         
e|-------0-------------7-------------7-------------7------7-|
B|-------7------0------7-------------7-------------7------7-|
G|-------0------0------8-------------8------0------8------8-|
D|-------8------0------9-------------9------0------9------9-|
A|-------9-------------9-------------9------0------9------9-|
E|---------------------7-------------7-------------7------7-|


                                                             
         F A7sus4      F             F A7sus4      F      F  
         '             '             '             '         
e|-------7-------------7-------------7-------------7------7-|
B|-------7-------------7-------------7-------------7------7-|
G|-------8------0------8-------------8------0------8------8-|
D|-------9------0------9-------------9------0------9------9-|
A|-------9------0------9-------------9------0------9------9-|
E|-------7-------------7-------------7-------------7------7-|


                                                             
         F A7sus4      C      C      C    G/A      C      C  
         '             '             '             '         
e|-------7-------------0------0------0-------------0------0-|
B|-------7-------------7------7------7------0------7------7-|
G|-------8------0------0------0------0------0------0------0-|
D|-------9------0------8------8------8------0------8------8-|
A|-------9------0------9------9------9------0------9------9-|
E|-------7--------------------------------------------------|


                                                          
       C  G/A    C    C    C    G Amin Amin    C G C   C  
       '         '         '         '         '   '      
e|-----0---------0----0----0---------0----0-|--0---0---0-|
B|-----7----0----7----7----7---------7----7-|--7-0-7---7-|
G|-----0----0----0----0----0----0----8----8-|--0-0-0---0-|
D|-----8----0----8----8----8----0----8----8-|--8-0-8---8-|
A|-----9----0----9----9----9----8----0----0-|--9---9---9-|
E|------------------------------------------|------------|


                                                         
     C     C     C D5  G                                 
     '     '     '     '     ''''   '     '   '     '    
e|---0-----0-----0-----9---|-----|----------0---0-----0-|
B|---7-----7-----7-----0---|-----|------------0---------|
G|---0-----0-----0-----0---|-----|------8---------8-----|
D|---8-----8-----8--0--0---|-----|----------------------|
A|---9--0--9-----9--0--8---|-----|----------------------|
E|---------------------9---|-----|----------------------|


                                                                  
                                            Amin                  
       '              '         '              '       ''''  '''' 
e|----------0--------------0-------------------0-----|-----|-----|
B|-----0-----------------------------0---------7-----|-----|-----|
G|--------------------8------------------------8-----|-----|-----|
D|---------------------------------------------8-----|-----|-----|
A|---------------------------------------------0-----|-----|-----|
E|---------------------------------------------------|-----|-----|



Noguitar (3:09 - 3:09)
       
       
   ''' 
e|----|
B|----|
G|----|
D|----|
A|----|
E|----|
Suggest correction
Give kudos to tab author, rate the tab!
1 2 3 4 5
comments
print report bad tab
guest
You may want to rate the tab now too:
select rating
Wanna post a correction for this tab? Suggest correction