Oops, an error
Loading. Please wait.
We have Chord Pro version of The Boxer.
It's the closest thing you can get to the original song and it has interactive parts. Check out the tab »
×
3,179 views 54 this week
1 commentread comment
1 2 3 4 5
x 3
add to favorites
×
Save as Personal and add changes to this tab that will be seen only by you. Learn more ›
×
You can save this tab as Personal to edit and correct it or add notes. All changes will be seen only by you. Learn more »
launch autoscroll
font size
0
reset
how to read this tab
guitar tuner
edit
Autoscroll
slow
fast
+/-
esc
set tempo
stop
THE BOXER

As recorded by Simon & Garfunkel
(From the 1970 Album BRIDGE OVER TROUBLED WATER)

Words and Music by Paul Simon

Transcribed by Slowhand 


          Am                   Em                    G                    C
      x 0 2 2 1 0          0 2 2 0 0 0          3 2 0 0 0 3          x 3 2 0 1 0

          G/B                  F/C
      x 2 0 0 3 x          x 3 3 2 1 1



Gtr I (Eb Ab Db Gb Bb Eb) - 'Paul Simon - Acoustic Guitar (1/2 step down)'
Gtr II (Eb Ab Db Gb Bb Eb) - 'Paul Simon - Acoustic Guitar (1/2 step down)'
Gtr III (Eb Ab Db Gb Bb Eb) - 'Paul Simon - Acoustic 12-string Guitar (1/2 step down)'
Gtr IV (E A D G B E) - 'Piccolo Trumpet '


 Intro
  H=92
  N.C.                                C
 4/4
  Gtr I (Ac. Gtr. - 1/2 step down)   Gtrs I, II (Ac. Gtrs. - 1/2 step down)
  E E E E E E E E   E E E E E E E E   E E E E E E E E   E E E E E E E E
|-3-0---0-----0---|---0-------------|-----------------|------------------||
|-----3---3-----3-|-----3---1-----1-|---1-------1-----|---1-------1------||
|-----------3-----|-0-----0---3-0---|-------0-------0-|-------0-------0--||
|-----------------|-----------------|-----2-------2---|-----2-------2----||
|-----------------|-----------------|-3---------------|-3----------------||
|-----------------|-----------------|---------3-------|---------3--------||


 1st Verse
  C                                                     Am
  E E E E E E E E   E E E E E E E E   E E E E E E E E   E E E E E E Q
|-----------------|-----------------|-----------------|----------------|
|---1-----------1-|---1---1-------1-|---1-------1-----|---1-------1----|
|-------0-----0---|-----0-------0---|-------0-------0-|-------2--------|
|-----2---0h2-----|---------0h2-----|-----2-------0---|-----2-------2--|
|-3---------------|-3---------------|-3-------2-------|-0-------0------|
|-----------------|-----------------|-----------------|----------------|


  G                                G7               G6
  Q  E E E E E E   Q  E E E E Q    Q  E E E E E E   Q  E E E E E E
|------3---------|-3----------0--|-1--------------|-0--------0-----|
|-0--------0-----|------0--------|------0---1---3-|------0---------|
|--------------0-|----------0----|----------------|--------------0-|
|----0-------0---|----0-------0--|----0-------0---|----0-------0---|
|----------------|---------------|----------------|----------------|
|-3------3-------|-3------3------|-3------3-------|-3------3-------|


  C                                                     Am
  E E E E E E E E   E E E E E E E E   E E E E E E E E   E E E E E E E E
|-----------------|-----------------|-----------------|-----------------|
|---1-------1-----|---1-------1-----|---1-------1-----|---1-------1-----|
|-------0-------0-|-------0-------0-|-------0-------0-|-------2-------0-|
|-----2-------2---|-----2-------2---|-----2-------0---|-----2-------2---|
|-3---------------|-3---------------|-3-------2-------|-0-------0-------|
|---------3-------|---------3-------|-----------------|-----------------|


  G                 F/C                                 C
  E E E E E E E E   E E E E E E E E   E E E E E E E E   Q  Q  e E E E
|-----------------|-----------------|-----------------|----0--x-------|
|---0-------0-----|---1-------1-----|---1-------1-----|----1--x-1-----|
|-------0-------0-|-------2-------2-|-------2-------0-|----0--x-----0-|
|-----0-------0---|-----3-------3---|-----3-------3---|-----------2---|
|-----------------|-3-------3-------|-3-------3-------|-3-------------|
|-3-------3-------|-----------------|-----------------|---------------|


  G                                   G7                C
  E E E E E E E E   E E E E E E E E   E E E E E E E E   E E E E E E E E
|-----------------|-----------------|-----------------|-----------------|
|---0-------0-----|---0-------0-----|---0-------0---0-|---1-------1-----|
|-------0-------0-|-------0-------0-|-------0---------|-------0-------0-|
|-----0-------0---|-----0-------0---|-----3---2---0---|-----2-------2---|
|-----------------|-----------------|-----------------|-3---------------|
|-3-------3-------|-3-------3-------|-3---------------|---------3-------|


                                                        2nd Verse
                    C                                    C
  E E E E E E E E   E E E E E E E E   E E E E E E E E    E E E E E E E E
|-----------------|-----------------|-----------------||-----------------|
|---1-------1-----|---1-------1-----|---1-------1-----||---1-----------1-|
|-------0-------0-|-------0-------0-|-------0-------0-||-------0-----0---|
|-----2-------2---|-----2-------2---|-----2-------2---||-----2---0h2-----|
|-3---------------|-3---------------|-3---------------||-3---------------|
|---------3-------|---------3-------|---------3-------||-----------------|


                                      Am               G
  E E E E E E E E   E E E E E E E E   E E E E E E Q    Q  E E E E E E
|-----------------|-----------------|----------------|------3---------|
|---1---1-------1-|---1-------1-----|---1-------1----|-0--------0-----|
|-----0-------0---|-------0-------0-|-------2--------|--------------0-|
|---------0h2-----|-----2-------0---|-----2-------2--|----0-------0---|
|-3---------------|-3-------2-------|-0-------0------|----------------|
|-----------------|-----------------|----------------|-3------3-------|


                  G7               G6               C
  Q  E E E E Q    Q  E E E E E E   Q  E E E E E E   E E E E E E E E
|-3----------0--|-1--------------|-0--------0-----|-----------------|
|------0--------|------0---1---3-|------0---------|---1-------1-----|
|----------0----|----------------|--------------0-|-------0-------0-|
|----0-------0--|----0-------0---|----0-------0---|-----2-------2---|
|---------------|----------------|----------------|-3---------------|
|-3------3------|-3------3-------|-3------3-------|---------3-------|


                                      Am                G
  E E E E E E E E   E E E E E E E E   E E E E E E E E   E E E E E E E E
|-----------------|-----------------|-----------------|-----------------|
|---1-------1-----|---1-------1-----|---1-------1-----|---0-------0-----|
|-------0-------0-|-------0-------0-|-------2-------0-|-------0-------0-|
|-----2-------2---|-----2-------0---|-----2-------2---|-----0-------0---|
|-3---------------|-3-------2-------|-0-------0-------|-----------------|
|---------3-------|-----------------|-----------------|-3-------3-------|


  F/C                               C                G
  E E E E E E E E   Q  E E E E Q    E E E E E E Q    E E E E E E Q
|-----------------|-1-------------|-0--------------|-------3--------|
|---1-------1-----|------1--------|-------1--------|-0---------0----|
|-------2-------2-|----------2----|---0-------0----|---0------------|
|-----3-------3---|----3-------3--|-----2-------2--|-----0-------0--|
|-3-------3-------|-3------3------|-3-------3------|----------------|
|-----------------|---------------|----------------|-3-------3------|


                                                   Chorus
                                                 $
  F/C              C                                Am
                                                 Gtr III (Ac. 12-string Gtr. - 1/2 step down)
  W                W                 W              E E E E E E E E
                                                    | | | | | | | |
                                                    / / / / / / / /

  E E E E E E Q    E E E E E E E E   Q  Q  Q  q     E E E E E E E E
|----------------|-----------------|-------------||---0-------0-----|
|---1-------1----|---1-------1-----|----5--------||-------1-------1-|
|-------2--------|-------0-------0-|----5-----x--||-----2-------2---|
|-----3-------3--|-----2-------2---|----5-----x--||---------2-------|
|-3-------3------|-3---------------|-3-----3--x--||-0---------------|
|----------------|---------3-------|-------------||-----------------|


  Am                Em                                  Am
  E E E E E E E E   E E E E E E E E   E E E E E E E E   E E E E E E E E
  | | | | | | | |   | | | | | | | |   | | | | | | | |   | | | | | | | |
  / / / / / / / /   / / / / / / / /   / / / / / / / /   / / / / / / / /

  E E E E E E Q     E E E E E E E E   E E E E E E Q     E E E E E E E E
|---0-------0-----|-----------------|-----------------|-----------------|
|-------1---------|---0-------0-----|---0-------0-----|---1-------1-----|
|-----2-------2---|-------0-------0-|-------0---------|-------2-------2-|
|---------2-------|-----2-------2---|-----2-------2---|-----2-------2---|
|-0---------------|---------2-------|-----------------|-0---------------|
|-----------------|-0---------------|-0-------0-------|---------0-------|


  Am                G                                   C
  E E E E E E E E   E E E E E E E E   E E E E E E E E   W
  | | | | | | | |   | | | | | | | |   | | | | | | | |   |
  / / / / / / / /   / / / / / / / /   / / / / / / / /   /

                                                        Gtr II
  E E E E E E Q     E E E E E E E E   E E E E E E E E   E E E E E E E E
|-----------------|-----------------|-----------------|-----------------|
|---1-------1-----|---0-------0-----|---0-------0---0-|---1-------1-----|
|-------2---------|-------0-------0-|-------0---------|-------0-------0-|
|-----2-------2---|-----0-------0---|-----0-----------|-----2-------2---|
|-0-------0-------|-----------------|-2-------0---2---|-3---------------|
|-----------------|-3-------3-------|-----------------|---------3-------|


                                                           3rd Verse
                               To Coda
  C                                                         C
  W                   W                  W                  W
  |                   |                  |
  /                   /                  /

  Gtr I
  H       E E +Q      E E E E E E E E    E E E E E E E E    E E E E E E E E
|---------0---------|---0---0-----0----|-----------------||------------------|
|-----------1-(1)---|-----3---3-----3--|-----1-----1-----||---1-----------1--|
|-------------------|-----------0------|-0-3---0-3---0-3-||-------0-----0----|
|-------------------|------------------|-----------------||-----2---0h2------|
|-------------------|------------------|-----------------||-3----------------|
|-------------------|------------------|-----------------||------------------|
|
| Gtr II
| E E E E E E  E  E   E E E E E E E E    E E E E E E E E    E E E E E E E E
|-------------------|------------------|-----------------||------------------|
|---1-------1-------|---1-------1------|---1-------1-----||---1-----------1--|
|-------0---------0-|-------0-------0--|-------0-------0-||-------0-----0----|
|-----2--------2----|-----2-------2----|-----2-------2---||-----2---0-2------|
|-3-----------------|-3----------------|-3---------------||-3----------------|
|---------3---------|---------3--------|---------3-------||------------------|


                                      Am               G
  Gtrs I, II
  E E E E E E E E   E E E E E E E E   E E E E E E Q    Q  E E E E E E
|-----------------|-----------------|----------------|------3---------|
|---1---1-------1-|---1-------1-----|---1-------1----|-0--------0-----|
|-----0-------0---|-------0-------0-|-------2--------|--------------0-|
|---------0h2-----|-----2-------0---|-----2-------2--|----0-------0---|
|-3---------------|-3-------2-------|-0-------0------|----------------|
|-----------------|-----------------|----------------|-3------3-------|


                  G7               G                C
  Q  E E E E Q    Q  E E E E E E   Q  E E E E E E   E E E E E E E E
|-3----------0--|-1--------------|-0--------0-----|-----------------|
|------0--------|------0---1---3-|------0---------|---1-------1-----|
|----------0----|----------------|--------------0-|-------0-------0-|
|----0-------0--|----0-------0---|----0-------0---|-----2-------2---|
|---------------|----------------|----------------|-3---------------|
|-3------3------|-3------3-------|-3------3-------|---------3-------|


                                      Am                G
  E E E E E E E E   E E E E E E E E   E E E E E E E E   E E E E E E E E
|-----------------|-----------------|-----------------|-----------------|
|---1-------1-----|---1-------1-----|---1-------1-----|---0-------0-----|
|-------0-------0-|-------0-------0-|-------2-------0-|-------0-------0-|
|-----2-------2---|-----2-------0---|-----2-------2---|-----0-------0---|
|-3---------------|-3-------2-------|-0-------0-------|-----------------|
|---------3-------|-----------------|-----------------|-3-------3-------|


  F/C                                C               G
  E E E E E E E E   E E E E E E Q    Q  Q  e E E E   E E E E E E E E
|-----------------|----------------|----0--x-------|-----------------|
|---1-------1-----|-------1--------|----1--x-1-----|---0-------0-----|
|-------2-------2-|-0h2-------2----|----0--x-----0-|-------0-------0-|
|-----3-------3---|-----3-------3--|-----------2---|-----0-------0---|
|-3-------3-------|-3-------3------|-3-------------|-3---------------|
|-----------------|----------------|---------------|---------3-------|


                    G7                C
  E E E E E E E E   E E E E E E E E   E E E E E E E E   E E E E E E E E
|-----------------|-----------------|-----------------|-----------------||
|---0-------0-----|---0-------0---0-|---1-------1-----|---1-------1-----||
|-------0-------0-|-------0---------|-------0-------0-|-------0-------0-||
|-----0-------0---|-----3---2---0---|-----2-------2---|-----2-------2---||
|-3---------------|-----------------|-3---------------|-3---------------||
|---------3-------|-3---------------|---------3-------|---------3-------||


 Instrumental Verse
  C                                           G/B       Am
   Q  E E E E Q     Q  E E E  E E E    Q  E E  Q  E E    E E E E E E Q
|--0-------------|--3---------------|-----------------|--0--------------|
|-----------1----|------------1-----|--1-------3------|----1-------1----|
|-------0--------|-------0--------0-|-------0-------0-|--------2--------|
|-----2-------2--|-----2--------2---|-----2-------0---|------2-------2--|
|--3-------------|--3---------------|--3-------2------|--0-------0------|
|---------3------|---------3--------|-----------------|-----------------|
|
| Gtr III
|  H      H         H      Q.     E    H       H         H       H
|---------0------|---------0------0-|-----------------|----------0------|
|---------1------|---------1------1-|----------3------|----------1------|
|---------0------|---------0------0-|----------0------|----------2------|
|---------2------|---------2------2-|----------0------|----------2------|
|--3------3------|--3------3------3-|--3-------2------|--0-------0------|
|----------------|------------------|-----------------|-----------------|
|
| Gtr IV (Piccolo Trumpet arr. for Gtr.)
|  W                W                  H       H         W
|-11-------------|-14---------------|-----------------|-----------------|
|----------------|------------------|-12------14------|-16--------------|
|----------------|------------------|-----------------|-----------------|
|----------------|------------------|-----------------|-----------------|
|----------------|------------------|-----------------|-----------------|
|----------------|------------------|-----------------|-----------------|


  G
   E E E E E E E E     E  E E E Q   E E
|------------------|----------------3---|
|--3---------3-----|--------------------|
|----0---0-------0-|------0---0-------0-|
|------0-------0---|--------0-------0---|
|------------------|--------------------|
|--3-------3-------|---3--------3-------|
|
|  H       H           H        H
|----------3-------|------------3-------|
|----------0-------|------------0-------|
|----------0-------|------------0-------|
|----------0-------|------------0-------|
|----------2-------|------------2-------|
|--3-------3-------|---3--------3-------|
|
|  W                  +H.           Q
|------------------|---------------14---|
|-14---------------|-(14)---------------|
|------------------|--------------------|
|------------------|--------------------|
|------------------|--------------------|
|------------------|--------------------|


                     G7
   E E E E E E E E     E  E E E E E  Q
|------------------|--------------1-----|
|------------0-----|------0-------------|
|----0---0-------0-|----------0---------|
|------0-------0---|--------0--------0--|
|------------------|--------------------|
|--3-------3-------|---3--------3-------|
|
|  H       H           H        H
|----------3-------|------------1-------|
|----------0-------|------------0-------|
|----------0-------|------------0-------|
|----------0-------|------------0-------|
|----------2-------|------------2-------|
|--3-------3-------|---3--------3-------|
|
|  W                  +H.            Q
|-14---------------|-(14)-----------12--|
|------------------|--------------------|
|------------------|--------------------|
|------------------|--------------------|
|------------------|--------------------|
|------------------|--------------------|


  C                                        B         Am
   Q  Q   Q  Q     Q   Q  Q   Q     Q  E E  Q  E E    E  E E E E E  Q
|--0------3-----|--0-------------|--0-------3------|--5----------------|
|-----1------1--|------1------1--|-----------------|-----5-------5-----|
|---------------|----------------|-------0-------0-|---------5---------|
|-----2------2--|------2------2--|-----2-------0---|-------7--------7--|
|--3------------|--3-------------|--3-------2------|--0--------0-------|
|---------3-----|---------3------|-----------------|-------------------|
|
|  H      H        H      H         H       H         H        H
|---------0-----|---------0------|-----------------|-----------0-------|
|---------1-----|---------1------|-----------------|-----------1-------|
|---------0-----|---------0------|-----------------|-----------2-------|
|---------2-----|---------2------|-----------------|-----------2-------|
|--3------3-----|--3------3------|--3-------2------|--0--------0-------|
|---------------|----------------|-----------------|-------------------|
|
|  H      H        H.         Q     H       H         H.            Q
|-11-----14-----|-19---------14--|---------14------|-16----------------|
|---------------|----------------|-16--------------|---------------16--|
|---------------|----------------|-----------------|-------------------|
|---------------|----------------|-----------------|-------------------|
|---------------|----------------|-----------------|-------------------|
|---------------|----------------|-----------------|-------------------|


  G                 F/C                                    C
   Q  E E E E E E    E E E E E E Q      E  E E E E E E E    Q   Q  Q  Q
|--3--------------|--1--------------|--------------------|------0--------|
|-----0-------0---|----1-------1----|----------1---------|---------3--1--|
|---------0-------|--------2--------|---0h=2-------2---0-|-(0)-----------|
|-------0-------0-|------3-------3--|--------3-------3---|---------------|
|-----------------|--3-------3------|---3--------3-------|--3---3--2--0--|
|--3--------3-----|-----------------|--------------------|---------------|
|
|  H      H          H       H          H        H          Q   Q  Q  Q
|---------3-------|-----------------|--------------------|------0--------|
|---------0-------|----------1------|------------1-------|------1--------|
|---------0-------|----------2------|------------2-------|------0--------|
|---------0-------|----------3------|------------3-------|------2--------|
|---------2-------|--3-------3------|---3--------3-------|--3---3--2--0--|
|--3------3-------|-----------------|--------------------|---------------|
|
|  W                 W                 +W                   W
|-----------------|-----------------|--------------------|---------------|
|-19--------------|-17--------------|-(17)---------------|-16------------|
|-----------------|-----------------|--------------------|---------------|
|-----------------|-----------------|--------------------|---------------|
|-----------------|-----------------|--------------------|---------------|
|-----------------|-----------------|--------------------|---------------|


                                                                D.S. al Coda
  G                 F/C               C
   E E E E E E Q     E E E E E E Q      E  E E E E E E E     Q   Q   Q  E E
|--------3--------|--------1--------|--------------------|-------0------------||
|--0--------------|--1---------1----|---1------1---1-----|-------1------------||
|----0-------0----|----2------------|------0-----------0-|-------0--------0---||
|------0-------0--|------3-------3--|--------2-------2---|--------------0-----||
|-----------------|--3-------3------|---3----------------|---3-------2--------||
|--3-------3------|-----------------|------------3-------|--------------------||
|
|  H       H         H       H          H        H           Q   H.
|----------3------|----------1------|------------0-------|---0---0------------||
|----------0------|----------1------|------------1-------|---1---1------------||
|----------0------|----------2------|------------0-------|---0---0------------||
|----------0------|----------3------|------------2-------|---2---2------------||
|----------2------|--3-------3------|---3--------3-------|---3---3------------||
|--3-------3------|-----------------|--------------------|--------------------||
|
|  W                 W                 +W                   +H.         Q
|-----------------|-----------------|--------------------|--------------------||
|-14--------------|-12--------------|-(12)---------------|-(12)---------------||
|-----------------|-----------------|--------------------|--------------------||
|-----------------|-----------------|--------------------|--------------------||
|-----------------|-----------------|--------------------|--------------------||
|-----------------|-----------------|--------------------|--------------------||


                    4th Verse
  &
  C                  C
  Gtr III
  W                  W
  |
  /

  E E E E E E E E    E E E E E E E E
|-----------------||-----------------|
|---1-------1-----||---1-----------1-|
|-------0-------0-||-------0-----0---|
|-----2-------2---||-----2---0h2-----|
|-3---------------||-3---------------|
|---------3-------||-----------------|


                                      Am
  W                 W                 W
  E E E E E E E E   E E E E E E E E   E E E E E E Q
|-----------------|-----------------|----------------|
|---1---1-------1-|---1-------1-----|---1-------1----|
|-----0-------0---|-------0-------0-|-------2--------|
|---------0h2-----|-----2-------0---|-----2-------2--|
|-3---------------|-3-------2-------|-0-------0------|
|-----------------|-----------------|----------------|


  G                                G7                 G6
  Q  E E E E E E   Q  E E E E Q    Q  E E  E  E E E   Q  E E E E E E
|------3---------|-3----------0--|-1----------------|-0--------0-----|
|-0--------0-----|------0--------|------0-(0)h1---3-|------0---------|
|--------------0-|----------0----|------------------|--------------0-|
|----0-------0---|----0-------0--|----0---------0---|----0-------0---|
|----------------|---------------|------------------|----------------|
|-3------3-------|-3------3------|-3-------3--------|-3------3-------|


  C                                   Em
                                    Gtr III
  W                 W                 W                W
                                      |                |
                                      /                /

  E E E E E E E E   E E E E E E E E   E E E E E E Q    E E E E E E Q
|-----------------|-----------------|----------------|-0--------------|
|---1-------1-----|---1-------1-----|-0-----0--------|---0---0--------|
|-------0-------0-|-------0-------0-|---0-------0----|-----0-----0----|
|-----2-------2---|-----2-------2---|-----2-------2--|-------------2--|
|-3---------------|-3---------------|----------------|----------------|
|---------3-------|---------3-------|-0-------0------|-0-------0------|


  Am                                G
  W                W                W                 +W
  |                |                |                  |
  /                /                /                  /

  E E E E E E Q    E E E E E E Q    E E E E E E E E    E E E E E E E E
|----------------|-0--------------|-----------------|------------------|
|-1-----1--------|---1---1--------|---0-------0-----|----0-------0-----|
|---2-------2----|-----2-----2----|-------0-------0-|--------0-------0-|
|-----2-------2--|-------------2--|-----0-------0---|------0-------0---|
|-0-------0------|-0-------0------|-----------------|------------------|
|----------------|----------------|-3-------3-------|--3-------3-------|


  G7                  C
  E E E E E E E   E    E    E  E E  E  E E E
|-------------------|------------------------|
|---0-------0-----0-|-------1----------1-----|
|-------0-----------|------------0---------0-|
|-----3---2---0-----|----------2---------2---|
|-------------------|--3---------------------|
|-3-----------------|---------------3--------|
|
| Gtr II
| H       E E E a E   +E  a Q.     +H
|-------------------|------------------------|
|-------------------|------------------------|
|-------------------|------------------------|
|-------------------|------------------------|
|---------7s5-3-6s7-|-(7)-6s7------(7)-------|
|-------------------|------------------------|


   E  E E E E E E   E    E    E  E E  E  E E E
|---------------------|------------------------|
|-----1-------1-------|-------1----------1-----|
|---------0---------0-|------------0---------0-|
|-------2-------2-----|----------2---------2---|
|--3------------------|--3---------------------|
|-----------3---------|---------------3--------|
|
| +H        E E E a E   +E  a Q.     +H
|---------------------|------------------------|
|---------------------|------------------------|
|---------------------|------------------------|
|---------------------|------------------------|
|-(7)-------7s5-3-6s7-|-(7)-6s7------(7)-------|
|---------------------|------------------------|


                    5th Verse
                     C
                  Gtr III
  W                  E E E E E E E E   E E E E E E E E   E E E E E E E E
                     | | | | | | | |   | | | | | | | |   | | | | | | | |
                     / / / / / / / /   / / / / / / / /   / / / / / / / /

  E E E E E E E E    E E E E E E E E   E E E E E E E E   E E E E E E E E
|-----------------||-----------------|-----------------|-----------------|
|---1-------1-----||---1-----------1-|---1---1-------1-|---1-------1-----|
|-------0-------0-||-------0-----0---|-----0-------0---|-------0-------0-|
|-----2-------2---||-----2---0h2-----|---------0h2-----|-----2-------0---|
|-3---------------||-3---------------|-3---------------|-3-------2-------|
|---------3-------||-----------------|-----------------|-----------------|


  Am                G
  E E E E E E E E   E E E E E E E E   E E E E E E E E   E E E E  E  E E E
  | | | | | | | |   | | | | | | | |   | | | | | | | |   | | | |  |  | | |
  / / / / / / / /   / / / / / / / /   / / / / / / / /   / / / /  /  / / /

  E E E E E E Q     Q   E E E E E E   Q   E E E E Q     Q   E E  E  E E E
|-----------------|-------3---------|-3-----------0---|-1-----------------|
|---1-------1-----|-0---------0-----|-------0---------|-------0-(0)h1---3-|
|-------2---------|---------------0-|-----------0-----|-------------------|
|-----2-------2---|-----0-------0---|-----0-------0---|-----0---------0---|
|-0-------0-------|-----------------|-----------------|-------------------|
|-----------------|-3-------3-------|-3-------3-------|-3--------3--------|


  G                 C                                           G/B
  E E E E E E E E   E E E E E E E E   E E E E E E E E   E E E E E E E E
  | | | | | | | |   | | | | | | | |   | | | | | | | |   | | | | | | | |
  / / / / / / / /   / / / / / / / /   / / / / / / / /   / / / / / / / /

  Q   E E E E E E   E E E E E E E E   E E E E E E E E   E E E E E E E E
|-0---------0-----|-----------------|-----------------|-----------------|
|-------0---------|---1-------1-----|---1-------1-----|---1-------1-----|
|---------------0-|-------0-------0-|-------0-------0-|-------0-------0-|
|-----0-------0---|-----2-------2---|-----2-------2---|-----2-------0---|
|-----------------|-3---------------|-3---------------|-3-------2-------|
|-3-------3-------|---------3-------|---------3-------|-----------------|


  Am                G                 F/C
  E E E E E E E E   E E E E E E E E   E E E E E E E E   E E E E E E E E
  | | | | | | | |   | | | | | | | |   | | | | | | | |   | | | | | | | |
  / / / / / / / /   / / / / / / / /   / / / / / / / /   / / / / / / / /

  E E E E E E E E   E E E E E E E E   E E E E E E E E   Q   E E E E Q
|-----------------|-----------------|-----------------|-1---------------|
|---1-------1-----|---0-------0-----|---1-------1-----|-------1---------|
|-------2-------0-|-------0-------0-|-------2-------2-|-----------2-----|
|-----2-------2---|-----0-------0---|-----3-------3---|-----3-------3---|
|-0-------0-------|-----------------|-3-------3-------|-3-------3-------|
|-----------------|-3-------3-------|-----------------|-----------------|


  C     B  A    G                 F/C               C
  Q  Q  Q  Q    E E E E E E E E   E E E E E E E E   E E E E E E E E
  |  |  |  |    | | | | | | | |   | | | | | | | |   | | | | | | | |
  /  /  o  o    / / / / / / / /   / / / / / / / /   / / / / / / / /

  Q  Q  Q  Q    E E E E E E Q     E E E E E E Q     E E E E E E E E
|----0--------|-------3---------|-----------------|-----------------|
|-------3--1--|-0---------0-----|---1-------1-----|---1-------1-----|
|-0-----------|---0-------------|-------2---------|-------0-------0-|
|-------------|-----0-------0---|-----3-------3---|-----2-------2---|
|-3--3--2--0--|-----------------|-3-------3-------|-3---------------|
|-------------|-3-------3-------|-----------------|---------3-------|


                   Chorus
  C                 Am                                  Em
  Q  Q  E E E E     E E E E E E E E   E E E E E E E E   E E E E E E E E
  |  |  | | | |     | | | | | | | |   | | | | | | | |   | | | | | | | |
  /  /  / / / /     / / / / / / / /   / / / / / / / /   / / / / / / / /

  Q  Q  Q   q       E E E E E E E E   E E E E E E Q     E E E E E E E E
|---------------||----0-------0-----|---0-------0-----|-----------------|
|----5----------||o-------1-------1-|-------1---------|---0-------0-----|
|----5------x---||------2-------2---|-----2-------2---|-------0-------0-|
|----5------x---||----------2-------|---------2-------|-----2-------2---|
|-3-----3---x---||o-0---------------|-0---------------|---------2-------|
|---------------||------------------|-----------------|-0---------------|


                    Am                                  G
  E E E E E E E E   E E E E E E E E   E E E E E E E E   E E E E E E E E
  | | | | | | | |   | | | | | | | |   | | | | | | | |   | | | | | | | |
  / / / / / / / /   / / / / / / / /   / / / / / / / /   / / / / / / / /

  E E E E E E Q     E E E E E E E E   E E E E E E Q     E E E E E E E E
|-----------------|-----------------|-----------------|-----------------|
|---0-------0-----|---1-------1-----|---1-------1-----|---0-------0-----|
|-------0---------|-------2-------2-|-------2---------|-------0-------0-|
|-----2-------2---|-----2-------2---|-----2-------2---|-----0-------0---|
|-----------------|-0---------------|-0-------0-------|-----------------|
|-0-------0-------|---------0-------|-----------------|-3-------3-------|


                     Outro
                      C                                             G/B
  E E E E E E E E     E E E E +E E Q     E E E E +E E Q     Q   E E Q   E E
  | | | | | | | |     | | | |  | | |     | | | |  | | |     |   | | |   | |
  / / / / / / / /     / / / /  / / /     / / / /  / / /     /   / / /   / /

  E E E E E E E E  8x E E E E  E E E E   E E E E  E E E E   E E E E E E E E
|------------------||------------------|------------------|-----------------|
|---0-------0---0-o||---1------------1-|---1---1--------1-|---1-------1-----|
|-------0----------||-------0------0---|-----0--------0---|-------0-------0-|
|-----0------------||-----2----0h2-----|----------0h2-----|-----2-------0---|
|-2-------0---2---o||-3----------------|-3----------------|-3-------2-------|
|------------------||------------------|------------------|-----------------|


  Am                G
  E E E E +E E Q    E E E E +E E Q    E E E E +E E Q    E E E E +E E Q
  | | | |  | | |    | | | |  | | |    | | | |  | | |    | | | |  | | |
  / / / /  / / /    / / / /  / / /    / / / /  / / /    / / / /  / / /

  E E E E  E E Q    E E E E  E E Q    E E E E  E E Q    E E E E  E E Q
|-----------------|-------3---------|-----------------|-----------------|
|---1--------1----|-------0---------|-0-----0---------|-0-----0---------|
|-------2---------|---0--------0----|---0--------0----|---0--------0----|
|-----2--------2--|-----0--------0--|-----0--------0--|-----0--------0--|
|-0--------0------|-----------------|-----------------|-----------------|
|-----------------|-3--------3------|-3--------3------|-3--------3------|


  G                 C                                             G/B
  E E E E +E E Q    E E E E +E E Q     E E E E +E E Q     Q   E E Q   E E
  | | | |  | | |    | | | |  | | |     | | | |  | | |     |   | | |   | |
  / / / /  / / /    / / / /  / / /     / / / /  / / /     /   / / /   / /

  E E E E  E E Q    E E E E  E E E E   E E E E  E E E E   E E E E E E E E
|-----------------|------------------|------------------|-----------------|
|-0-----0---------|---1--------1-----|---1--------1-----|---1-------------|
|---0--------0----|-------0--------0-|-------0--------0-|-------0-------0-|
|-----0--------0--|-----2--------2---|-----2--------2---|-----2-------0---|
|-----------------|-3----------------|-3----------------|-3-------0h2-----|
|-3--------3------|----------3-------|----------3-------|-----------------|


  Am                G                 F/C
  E E E E +E E Q    E E E E +E E Q    E E E E +E E Q    E E E E +E E Q
  | | | |  | | |    | | | |  | | |    | | | |  | | |    | | | |  | | |
  / / / /  / / /    / / / /  / / /    / / / /  / / /    / / / /  / / /

  E E E E  E E Q    E E E E  E E Q    E E E E  E E Q    E E E E  E E E E
|-----------------|-----------------|-----------------|------------------|
|---1--------1----|---0-------------|-------1---------|-------1----------|
|-------2---------|-------0----0----|---2--------2----|-0h2--------2---0-|
|-----2--------2--|-----0--------0--|-----3--------3--|-----3--------3---|
|-0--------0------|-----------------|-3--------3------|-3--------3-------|
|-----------------|-3--------3------|-----------------|------------------|


  C                   G                 F/C               C
   E  E E E E E E E   E E E E +E E Q    E E E E +E E Q    E E E E +E E Q
   |  | | | | | | |   | | | |  | | |    | | | |  | | |    | | | |  | | |
   /  / / / / / / /   / / / /  / / /    / / / /  / / /    / / / /  / / /

   Q    Q   Q   Q     E E E E  E E Q    E E E E  E E Q    E E E E  E E E E
|-------0-----------|-------3---------|-------1---------|------------------|
|-----------3---1---|-0---------------|-----------------|-------1----------|
|-(0)---------------|---0--------0----|-0h2--------2----|---0--------0---0-|
|-------------------|-----0--------0--|-----3--------3--|-----2--------2---|
|--3----3---2---0---|-----------------|-3--------3------|-3----------------|
|-------------------|-3--------3------|-----------------|----------3-------|


  C
  E E E E H      +W           +W
  | | | | |       |            |
  / / / / /       /            /

  Q   Q   H      +W           +W
|---------0----|-(0)--------|-(0)----*|
|-1-------1----|-(1)--------|-(1)----*|
|---------0----|-(0)--------|-(0)----*|
|---------2----|-(2)--------|-(2)----*|
|-3-------3----|-(3)--------|-(3)----*|
|-----3--------|------------|--------*|


Duration Legend
---------------
W - whole; H - half; Q - quarter; E - 8th; S - 16th; T - 32nd; X - 64th; a - acciaccatura
+ - note tied to previous; . - note dotted; .. - note double dotted
Uncapitalized letters represent notes that are staccato (1/2 duration)
Irregular groupings are notated above the duration line
Duration letters will always appear directly above the note/fret number it represents the
duration for.  Duration letters with no fret number below them represent rests.  Multi-
bar rests are notated in the form Wxn, where n is the number of bars to rest for.  Low
melody durations appear below the staff

Tablature Legend
----------------
 h   - hammer-on
 p   - pull-off
 b   - bend
 pb  - pre-bend
 r   - bend release (if no number after the r, then release immediately)
 /\  - slide into or out of (from/to "nowhere")
 s   - legato slide
 S   - shift slide
  - natural harmonic
[n]  - artificial harmonic
n(n) - tapped harmonic
 ~   - vibrato
 tr  - trill
 T   - tap
 TP  - trem. picking
 PM  - palm muting
\n/  - tremolo bar dip; n = amount to dip
 \n  - tremolo bar down
 n/  - tremolo bar up
/n\  - tremolo bar inverted dip
 =   - hold bend; also acts as connecting device for hammers/pulls
 <>  - volume swell (louder/softer)
 x   - on rhythm slash represents muted slash
 o   - on rhythm slash represents single note slash

Misc Legend
-----------
 |  - bar
||  - double bar
||o - repeat start
o|| - repeat end
*|  - double bar (ending)
 :  - bar (freetime)
 $  - Segno
 &  - Coda
Tempo markers -  = BPM(8/16=s8/s16), where s8 = swing 8ths, s16 = swing 16ths

            
            
Suggest correction
Creating personal tab
Creating personal tab
You can edit any tab online and save it as your Personal.

You can edit, replace or remove any tab part or add personal notes – all changes will be seen only by you.

Personal tabs can be accessed anytime from any device, even offline.
Learn more »
Give kudos to tab author, rate the tab!
1 2 3 4 5
comments
print report bad tab
1 comment total.
0 reply
draenor 30 Nov 22, 2016 02:49 PM

Great, only missing the lyrics :)

guest
You may want to rate the tab now too:
select rating
Wanna post a correction for this tab? Suggest correction