Oops, an error
Loading. Please wait.
We have an official The Sound Of Silence tab made by UG professional guitarists. Check out the tab »
×

The Sound Of Silence tab

version 5
version 5

Whole song

Video

  • It's a Fingerstyle Arrangement in Em (Capo 2nd Fret).
329,220 views 3,321 this week
2 commentsread comments
1 2 3 4 5
x 18
add to favorites
×
Save as Personal and add changes to this tab that will be seen only by you. Learn more ›
×
You can save this tab as Personal to edit and correct it or add notes. All changes will be seen only by you. Learn more »
launch autoscroll
font size
0
reset
how to read this tab
guitar tuner
edit
Autoscroll
slow
fast
+/-
esc
set tempo
stop
THE SOUND OF SILENCE

As recorded by Simon & Garfunkel
(From the 1966 Album SOUNDS OF SILENCE)

Words and Music by Paul Simon

Transcribed by Slowhand


Gtr I (E A D G B E) - 'Joe South - Electric Guitar w/ capo 1st fret'
Gtr II (E A D G B E) - 'Paul Simon - Acoustic Guitar w/ capo 6th fret'


 Intro                                1st Verse
  Q=106
  Am                                   C
 4/4
  Gtr I (El. Gtr. w/ capo 1st fret)
  W                 E E E E E E E E    E E E E E E E E   E E E E E E E E
|-----------------|---5---5---5---5-||---3---3---3---3-|---3---3---3---3--|
|-----------------|-----5-------5---||-----3---5---3---|-----3---5---3----|
|-----------------|-7-------7-------||-5---------------|-5----------------|
|-----------------|-----------------||-----------------|------------------|
|-----------------|-----------------||-----------------|------------------|
|-----------------|-----------------||-----------------|------------------|
|
| Gtr II (Ac. Gtr. w/ capo 6th fret)
| E E E E E E E E   E E E E E E E E    E E E E E E E E   E E E E E E E E
|---0---0---0---0-|---0---0---0---0-||-----------------|------------------|
|-----0-------0---|-----0-------0---||-----------------|------------------|
|-2-------2-------|-2-------2-------||---0-0-0---0-0-0-|---0-0-0---0-0-0--|
|-----------------|-----------------||-----------------|------------------|
|-----------------|-----------------||-----------------|------------------|
|-----------------|-----------------||-3-------3-------|-3-------3--------|


  Dm                        F         Bb      F
  E E E E E E E E   E E E E E E E E   E E E E E E E E   E E E E E E E E
|---5---5---5---5-|---5---5---5---5-|---6---6---5---5-|-6-5---5---5---5-|
|-----5---6---5---|-----5---6-------|-----6-------6---|-----6-------6---|
|-7---------------|-7-----------7---|-7-------5-------|---------5-------|
|-----------------|-----------------|-----------------|-----------------|
|-----------------|-----------------|-----------------|-----------------|
|-----------------|-----------------|-----------------|-----------------|
|
| E E E E E E E E   E E E E E E E E   E E E E E E E E   E E E E E E E E
|-----------0-----|---0-------------|---1-------0-----|---0-------0-----|
|-------1-------1-|-------1---1-----|-------1-------1-|-------1-------1-|
|-----2-------2---|-----2---------0-|-----2-------0---|-----0-------0---|
|---2-----2-------|-2-----------2---|-----------------|-----------------|
|-0---------------|---------3-------|---------3-------|---------3-------|
|-----------------|-----------------|-1---------------|-3---------------|


  Bb      F                   Bb
                   2/4       4/4
  E E E E E E E E   E E E E   E E E E E E E E   E E E E E E E E
|---6---6---5---5-|-6-5---5-|---6---6---6---6-|---6---6---6---6-|
|-----6-------6---|-----6---|-----6-------6---|-----6-----------|
|-7-------5-------|---------|-7-------8-------|-7-------8---7---|
|-----------------|---------|-----------------|-----------------|
|-----------------|---------|-----------------|-----------------|
|-----------------|---------|-----------------|-----------------|
|
| E E E E E E E E   E E E E   E E E E E E E E   E E E E E E E E
|---1-------0-----|---0-----|---1-------1-----|---1-------1-----|
|-------1-------1-|-------1-|-------1-------1-|-------1-------1-|
|-----2-----------|---------|-----2-------2---|-----2-------2---|
|-------------2---|-----2---|---------3-------|-3-------3-------|
|---------3-------|---------|-----------------|-----------------|
|-1---------------|-3-------|-1---------------|-----------------|


  F                         Dm        F         C
                                     2/4       4/4
  E E E E E E E E   E E E E E E E E   E E E E   E E E E E E E E
|---1---1---1---1-|---1---1---1---1-|---1---1-|---3---3---3---3-|
|-----1-------1---|-----1-------3---|-----1---|-----5---3---5---|
|-2-------3-------|-2-------2-------|-2-------|-5---------------|
|-----------------|-----------------|---------|-----------------|
|-----------------|-----------------|---------|-----------------|
|-----------------|-----------------|---------|-----------------|
|
| E E E E E E E E   E E E E E E E E   E E E E   E E E E E E E E
|-----------------|---------------0-|---0---0-|---3---3---3---3-|
|---1-1-1---1---1-|---1---------1---|---------|-----------------|
|-------------0---|-----0-------2---|---------|-----------------|
|-2---------------|-----------2-----|-----2---|-----------------|
|---------3-------|-3-----2-0-------|-3-------|-----------------|
|-----------------|-----------------|---------|-3---3---3---3---|


                                 2nd - 4th Verses
                              $
                              $$
  Dm                              C
  E E E E E E E E    W            E E E E E E E E   E E E E E E E E
|---5---5---5---5-|-----------||--3-3-3-3-3-3-3-3-|-3-3-3-3-3-3-3-3-|
|-----5---6---5---|-----------||o-5-5-5-5-5-5-5-5-|-5-5-5-5-5-5-5-5-|
|-7---------------|--7--------||--5-5-5-5-5-5-5-5-|-5-5-5-5-5-5-5-5-|
|-----------------|-----------||--5-5-5-5-5-5-5-5-|-5-5-5-5-5-5-5-5-|
|-----------------|-----------||o-----------------|-----------------|
|-----------------|-----------||------------------|-----------------|
|
| E E E E E E E E    W            E E E E E E E E   E E E E E E E E
|---0---0---0---0-|-^0--------||--3-3-3-3-3-3-3-3-|-3-3-3-3-3-3-3-3-|
|-----0---1---0---|-^1--------||o-0-0-0-0-0-0-0-0-|-0-0-0-0-0-0-0-0-|
|-2---------------|-^2--------||--0-0-0-0-0-0-0-0-|-0-0-0-0-0-0-0-0-|
|-----------------|-^2--------||--0-0-0-0-0-0-0-0-|-0-0-0-0-0-0-0-0-|
|-----------------|-^0--------||o-2-2-2-2-2-2-2-2-|-2-2-2-2-2-2-2-2-|
|-----------------|-----------||--3-3-3-3-3-3-3-3-|-3-3-3-3-3-3-3-3-|


  Dm                                  Bb      F
  E E E E E E E E   E E E E E E E E   E E E E E E E E   E E E E E E E E
|-5-5-5-5-5-5-5-5-|-5-5-5-5-5-5-5-5-|-1-1-1-1-1-1-1-1-|-1-1-1-1-1-1-1-1-|
|-6-6-6-6-6-6-6-6-|-6-6-6-6-6-6-6-6-|-3-3-3-3-1-1-1-1-|-1-1-1-1-1-1-1-1-|
|-7-7-7-7-7-7-7-7-|-7-7-7-7-7-7-7-7-|-3-3-3-3-2-2-2-2-|-2-2-2-2-2-2-2-2-|
|-7-7-7-7-7-7-7-7-|-7-7-7-7-7-7-7-7-|-3-3-3-3-3-3-3-3-|-3-3-3-3-3-3-3-3-|
|-----------------|-----------------|-----------------|-----------------|
|-----------------|-----------------|-----------------|-----------------|
|
| E E E E E E E E   E E E E E E E E   E E E E E E E E   E E E E E E E E
|-0-0-0-0-0-0-0-0-|-0-0-0-0-0-0-0-0-|-1-1-1-1-0-0-0-0-|-0-0-0-0-0-0-0-0-|
|-1-1-1-1-1-1-1-1-|-1-1-1-1-1-1-1-1-|-1-1-1-1-1-1-1-1-|-1-1-1-1-1-1-1-1-|
|-2-2-2-2-2-2-2-2-|-2-2-2-2-2-2-2-2-|-2-2-2-2-0-0-0-0-|-0-0-0-0-0-0-0-0-|
|-2-2-2-2-2-2-2-2-|-2-2-2-2-2-2-2-2-|-3-3-3-3-2-2-2-2-|-2-2-2-2-2-2-2-2-|
|-0-0-0-0-0-0-0-0-|-0-0-0-0-0-0-0-0-|-3-3-3-3-3-3-3-3-|-3-3-3-3-3-3-3-3-|
|-----------------|-----------------|-1-1-1-1---------|-----------------|


                   1.
         To Coda
         To Coda
  Bb      F                   Bb
                   2/4       4/4
  E E E E E E E E   E E E E   E E E E E E E E
|-1-1-1-1-1-1-1-1-|-1-1-1-1-|-1-1-1-1-1-1-1-1-|
|-3-3-3-3-1-1-1-1-|-1-1-1-1-|-3-3-3-3-3-3-3-3-|
|-3-3-3-3-2-2-2-2-|-2-2-2-2-|-3-3-3-3-3-3-3-3-|
|-3-3-3-3-3-3-3-3-|-3-3-3-3-|-3-3-3-3-3-3-3-3-|
|-----------------|---------|-----------------|
|-----------------|---------|-----------------|
|
| E E E E E E E E   E E E E   E E E E E E E E
|-1-1-1-1-0-0-0-0-|-0-0-0-0-|-1-1-1-1-1-1-1-1-|
|-1-1-1-1-1-1-1-1-|-1-1-1-1-|-1-1-1-1-1-1-1-1-|
|-2-2-2-2-0-0-0-0-|-0-0-0-0-|-2-2-2-2-2-2-2-2-|
|-3-3-3-3-2-2-2-2-|-2-2-2-2-|-3-3-3-3-3-3-3-3-|
|-3-3-3-3-3-3-3-3-|-3-3-3-3-|-3-3-3-3-3-3-3-3-|
|-1-1-1-1---------|---------|-1-1-1-1-1-1-1-1-|


  E E E E E E E E   E E E E E E E E
|-1-1-1-1-1-1-1-1-|------------------|
|-3-3-3-3-3-3-3-3-|---1--------------|
|-3-3-3-3-3-3-3-3-|-----2-0-3-2-0-2--|
|-3-3-3-3-3-3-3-3-|-3----------------|
|-----------------|------------------|
|-----------------|------------------|
|
| E E E E E E E E   E E E E E E E E
|-1-1-1-1-1-1-1-1-|-0-0-0-0-0-0-0-0--|
|-1-1-1-1-1-1-1-1-|-1-1-1-1-1-1-1-1--|
|-2-2-2-2-2-2-2-2-|-0-0-0-0-0-0-0-0--|
|-3-3-3-3-3-3-3-3-|-2-2-2-2-2-2-2-2--|
|-3-3-3-3-3-3-3-3-|-3-3-3-3-3-3-3-3--|
|-1-1-1-1-1-1-1-1-|------------------|


  F       Dm                  C
 4/4               2/4       4/4
  E E E E E E E E   E E E E   E E E E E E E E
|-----1-0---1-----|---------|---------0-----0-|
|---1-----3---3---|-----1---|-----1-----1-----|
|---------------2-|-----2-0-|---0---0-----0---|
|-3---------------|---3-----|-----------------|
|-----------------|-3-------|-3---------------|
|-----------------|---------|-----------------|
|
| E E E E E E E E   E E E E   E E E E E E E E
|-0-0-0---0-0-0-0-|-0-0-0-0-|-3-3-3-3-3-3-3-3-|
|-1-1-1---1-1-1-1-|-1-1-1-1-|-0-0-0-0-0-0-0-0-|
|-0-0-0---2-2-2-2-|-0-0-0-0-|-0-0-0-0-0-0-0-0-|
|-2-2-2---2-2-2-2-|-2-2-2-2-|-0-0-0-0-0-0-0-0-|
|-3-3-3-2-0-0-0-0-|-3-3-3-3-|-2-2-2-2-2-2-2-2-|
|-----------------|---------|-3-3-3-3-3-3-3-3-|


  Dm
  Q   E E E E E E      +E   E Q   E E E E
|-1---1-----1-3-3b4==|=(3)r-1-----1-1-1-1--||
|-3---3-3-3----------|--------3---3-3-3-3-o||
|-2---2-0------------|------------2-2-2-2--||
|-0---0-0------------|------------0-0-0-0--||
|--------------------|--------------------o||
|--------------------|---------------------||
|
| E E E E E E E E       E   E E E E E E E
|-0-0-0-0-0-0-0-0----|--0---0-0-0-0-0-0-0--||
|-1-1-1-1-1-1-1-1----|--1---1-1-1-1-1-1-1-o||
|-2-2-2-2-2-2-2-2----|--2---2-2-2-2-2-2-2--||
|-2-2-2-0-2-2-2-0----|--2---2-2-0-2-2-2-0--||
|-0-0-0-0-0-0-0-0----|--0---0-0-0-0-0-0-0-o||
|--------------------|---------------------||


  2.
  F                 Bb                                  F
  E E E E E E E E   E E E E E E E E   E E E E E E E E   E E E E E E E E
|-1-1-1-1-1-1-1-1-|-1-1-1-1-1-1-1-1-|-1-1-1-1-1-1-1-1-|-1-1-1-1-1-1-1-1-|
|-1-1-1-1-1-1-1-1-|-3-3-3-3-3-3-3-3-|-3-3-3-3-3-3-3-3-|-1-1-1-1-1-1-1-1-|
|-2-2-2-2-2-2-2-2-|-3-3-3-3-3-3-3-3-|-3-3-3-3-3-3-3-3-|-2-2-2-2-3-2-0-2-|
|-3-3-3-3-3-3-3-3-|-3-3-3-3-3-3-3-3-|-3-3-3-3-3-3-3-3-|-3-3-3-3-3-3-3-3-|
|-----------------|-----------------|-----------------|-----------------|
|-----------------|-----------------|-----------------|-----------------|
|
| E E E E E E E E   E E E E E E E E   E E E E E E E E   E E E E E E E E
|-0-0-0-0-0-0-0-0-|-1-1-1-1-1-1-1-1-|-1-1-1-1-1-1-1-1-|-0-0-0-0-0-0-0-0-|
|-1-1-1-1-1-1-1-1-|-1-1-1-1-1-1-1-1-|-1-1-1-1-1-1-1-1-|-1-1-1-1-1-1-1-1-|
|-0-0-0-0-0-0-0-0-|-2-2-2-2-2-2-2-2-|-2-2-2-2-2-2-2-2-|-0-0-0-0-0-0-0-0-|
|-2-2-2-2-2-2-2-2-|-3-3-3-3-3-3-3-3-|-3-3-3-3-3-3-3-3-|-2-2-2-2-2-2-2-2-|
|-3-3-3-3-3-3-3-3-|-3-3-3-3-3-3-3-3-|-3-3-3-3-3-3-3-3-|-3-3-3-3-3-3-3-3-|
|-----------------|-1-1-1-1-1-1-1-1-|-1-1-1-1-1-1-1-1-|-----------------|


          Dm        F         C                 Dm
                   2/4       4/4
                                                        ~
  E E E E E E E E   E E E E   E E E E E E E E   E E E E Q   E E
|-----1-----1---1-|-1-1-1-1-|---0-----1-0---1-|---1-------------|
|-----1-----3---3-|-1-1-1-1-|-----1-------1---|---------3---1---|
|---2---------2---|-3-2-2-2-|-------0---------|-----2-0-------2-|
|-3-----2-0-------|-3-3-3-3-|-----------------|-0---------------|
|-----------------|---------|-3---------------|-----------------|
|-----------------|---------|-----------------|-----------------|
|
| E E E E E E E E   E E E E   E E E E E E E E   E E E E E E E E
|-0-0-0-0-0-0-0-0-|-0-0-0-0-|-3-3-3-3-3-3-3-3-|-0-0-0-0-0-0-0-0-|
|-1-1-1-1-1-1-1-1-|-1-1-1-1-|-0-0-0-0-0-0-0-0-|-1-1-1-1-1-1-1-1-|
|-0-0-0-0-2-2-2-2-|-0-0-0-0-|-0-0-0-0-0-0-0-0-|-2-2-2-2-2-2-2-2-|
|-2-2-2-2-2-2-2-2-|-2-2-2-2-|-0-0-0-0-0-0-0-0-|-2-2-2-0-2-2-2-0-|
|-3-3-3-3-0-0-0-0-|-3-3-3-3-|-2-2-2-2-2-2-2-2-|-0-0-0-0-0-0-0-0-|
|-----------------|---------|-3-3-3-3-3-3-3-3-|-----------------|


      D.S. al Coda &
                      F         Bb
                     2/4       4/4
  Q   E E E E E E     E E E E   E E E E E E E E   E E E E E E E E
|-1---1-1-1-1-1-1--||-1-1-1-1-|-1-1-1-1-1-1-1-1-|-1-1-1-1-1-1-1-1--|
|-3---3-3-3-3-3-3--||-1-1-1-1-|-3-3-3-3-3-3-3-3-|-3-3-3-3-3-3-3-3--|
|-2---2-2-2-2-2-2--||-2-2-2-2-|-3-3-3-3-3-3-3-3-|-3-3-3-3-3-3-3-3--|
|-0---0-0-0-0-0-0--||-3-3-3-3-|-3-3-3-3-3-3-3-3-|-3-3-3-3-3-3-3-3--|
|------------------||---------|-----------------|------------------|
|------------------||---------|-----------------|------------------|
|
| E E E E E E E E     E E E E   E E E E E E E E   E E E E E E E E
|-0-0-0-0-0-0-0-0--||-0-0-0-0-|-1-1-1-1-1-1-1-1-|-1-1-1-1-1-1-1-1--|
|-1-1-1-1-1-1-1-1--||-1-1-1-1-|-1-1-1-1-1-1-1-1-|-1-1-1-1-1-1-1-1--|
|-2-2-2-2-2-2-2-2--||-0-0-0-0-|-2-2-2-2-2-2-2-2-|-2-2-2-2-2-2-2-2--|
|-2-2-2-0-2-2-2-2--||-2-2-2-2-|-3-3-3-3-3-3-3-3-|-3-3-3-3-3-3-3-3--|
|-0-0-0-0-0-0-0-0--||-3-3-3-3-|-3-3-3-3-3-3-3-3-|-3-3-3-3-3-3-3-3--|
|------------------||---------|-1-1-1-1-1-1-1-1-|-1-1-1-1-1-1-1-1--|


  F                           Dm        F                 C
  E E E E E E S S E   E E E E E E E E   E E E E E E E E   E E E E E E E E
|-1-1-1-------------|-----1-----------|-1-1-1-1-1-1-1-1-|-0-0-0-0-0-0-0-0--|
|-1-1-1-1-1-1-1-----|-1-1-1-1-3-3-3-1-|-1-1-1-1-1-1-1-1-|-1-1-1-1-1-1-1-1--|
|-2-2-2-0-3-3-3p2---|-2-2-2-2-2-2-2-2-|-2-2-2-2-2-2-2-2-|-0-0-0-0-0-0-0-0--|
|-3-3-3-3-3-3-3---3-|-3-3-3-3-0-0-0-0-|-3-3-3-3-3-3-3-3-|-2-2-2-2-2-2-2-2--|
|-------------------|-----------------|-----------------|-3-3-3-3-3-3-3-3--|
|-------------------|-----------------|-----------------|------------------|
|
| E E E E E E E   E   E E E E E E E E   E E E E E E E E   E E E E E E E E
|-0-0-0-0-0-0-0---0-|-0-0-0-0-0-0-0-0-|-0-0-0-0-0-0-0-0-|-3-3-3-3-3-3-3-3--|
|-1-1-1-1-1-1-1---1-|-1-1-1-1-1-1-1-1-|-1-1-1-1-1-1-1-1-|-0-0-0-0-0-0-0-0--|
|-0-0-0-0-0-0-0---0-|-0-0-0-0-2-2-2-2-|-0-0-0-0-0-0-0-0-|-0-0-0-0-0-0-0-0--|
|-2-2-2-2-2-2-2---2-|-2-2-2-2-2-2-2-2-|-2-2-2-2-2-2-2-2-|-0-0-0-0-0-0-0-0--|
|-3-3-3-3-3-3-3---3-|-3-3-3-3-0-0-0-0-|-3-3-3-3-3-3-3-3-|-2-2-2-2-2-2-2-2--|
|-------------------|-----------------|-----------------|-3-3-3-3-3-3-3-3--|


                         D.S.S. al Dbl. Coda &&
  Dm
  E E E E E    +E   E E   +Q    E E E E E E
|-1-1---1-3b4==(3)r-1---|-------1-1-1-1-1-1--||
|-3-3-3---------------3-|-(3)---3-3-3-3-3-3--||
|-2-2-------------------|-------2-2-2-2-2-2--||
|-0-0-------------------|-------0-0-0-0-0-0--||
|-----------------------|--------------------||
|-----------------------|--------------------||
|
| E E E E E     E   E E    E  E E E E E E E
|-0-0-0-0-0-----0---0-0-|--0--0-0-0-0-0-0-0--||
|-1-1-1-1-1-----1---1-1-|--1--1-1-1-1-1-1-1--||
|-2-2-2-2-2-----2---2-2-|--2--2-2-2-2-2-2-2--||
|-2-2-2-0-2-----2---2-0-|--2--2-2-0-2-2-2-0--||
|-0-0-0-0-0-----0---0-0-|--0--0-0-0-0-0-0-0--||
|-----------------------|--------------------||


  F                 Bb
  E E E E E E E E   E E E E E E E E
|-1-1-1-1-1-1-1-1-|-1-1-1-1-1-1-1-1--|
|-1-1-1-1-1-1-1-1-|-3-3-3-3-3-3-3-3--|
|-2-2-2-2-2-2-2-2-|-3-3-3-3-3-3-3-3--|
|-3-3-3-3-3-3-3-3-|-3-3-3-3-3-3-3-3--|
|-----------------|------------------|
|-----------------|------------------|
|
| E E E E E E E E   E E E E E E E E
|-0-0-0-0-0-0-0-0-|-1-1-1-1-1-1-1-1--|
|-1-1-1-1-1-1-1-1-|-1-1-1-1-1-1-1-1--|
|-0-0-0-0-0-0-0-0-|-2-2-2-2-2-2-2-2--|
|-2-2-2-2-2-2-2-2-|-3-3-3-3-3-3-3-3--|
|-3-3-3-3-3-3-3-3-|-3-3-3-3-3-3-3-3--|
|-----------------|-1-1-1-1-1-1-1-1--|


                    F
  E E E E E E E E   E E E E E E E E   E E E E E E E E   E E E E E E E E
|-1-1-1-1-1-1-1-1-|-1-1-1-1-1-1-1-1-|-----1-----1-----|-----1-------1---|
|-3-3-3-3-3-3-3-3-|-1-1-1-1-1-1-1-1-|---1---1-3---3-1-|---1---1---1---1-|
|-3-3-3-3-3-3-3-3-|-2-2-2-0-3-2-0-2-|-----------------|-----------------|
|-3-3-3-3-3-3-3-3-|-3-3-3-3-3-3-3-3-|-3---------------|-3-------3-------|
|-----------------|-----------------|-----------------|-----------------|
|-----------------|-----------------|-----------------|-----------------|
|
| E E E E E E E E   E E E E E E E E   E E E E E E E E   E E E E E E E E
|-1-1-1-1-1-1-1-1-|-0-0-0-0-0-0-0-0-|-0-0-0-0-0-0-0-0-|-0-0-0-0-0-0-0-0-|
|-1-1-1-1-1-1-1-1-|-1-1-1-1-1-1-1-1-|-1-1-1-1-1-1-1-1-|-1-1-1-1-1-1-1-1-|
|-2-2-2-2-2-2-2-2-|-0-0-0-0-0-0-0-0-|-0-0-0-0-2-2-2-2-|-0-0-0-0-2-2-2-2-|
|-3-3-3-3-3-3-3-3-|-2-2-2-2-2-2-2-2-|-2-2-2-2-2-2-2-2-|-2-2-2-2-2-2-2-2-|
|-3-3-3-3-3-3-3-3-|-3-3-3-3-3-3-3-3-|-3-3-3-3-0-0-0-0-|-3-3-3-3-0-0-0-0-|
|-1-1-1-1-1-1-1-1-|-----------------|-----------------|-----------------|


                  Outro
  H.=H
                   Dm
  E E H.           Q   E E E E E E   E E E E  H      +W
|---0-----------||-----------------|---------^5----|-(5)----*|
|-----1---------||---------6---5---|-6---5---^6----|-(6)----*|
|---------------||-----------7---7-|---7---7-^7----|-(7)----*|
|---------------||-----------------|---------^7----|-(7)----*|
|-3-------------||-------5---------|---------^5----|-(5)----*|
|---------------||-----------------|---------------|--------*|
|
| E E E  E H       E E E E E E E E   E E E E  H      +W
|-3-3-3--3-3----||---0---0---0---0-|---0---0--0----|-(0)----*|
|-0-0-0--0-0----||-----0-------0---|-----0---------|--------*|
|-0-0-0--0-0----||-2-------2-------|-2-------------|--------*|
|-0-0-0--0-0----||-----------------|---------------|--------*|
|-2-2-2--2-2----||-----------------|----------0----|-(0)----*|
|-3-3-3--3-3----||-----------------|---------------|--------*|


Duration Legend
---------------
W - whole; H - half; Q - quarter; E - 8th; S - 16th; T - 32nd; X - 64th; a - acciaccatura
+ - note tied to previous; . - note dotted; .. - note double dotted
Uncapitalized letters represent notes that are staccato (1/2 duration)
Irregular groupings are notated above the duration line
Duration letters will always appear directly above the note/fret number it represents the
duration for.  Duration letters with no fret number below them represent rests.  Multi-
bar rests are notated in the form Wxn, where n is the number of bars to rest for.  Low
melody durations appear below the staff

Tablature Legend
----------------
 h   - hammer-on
 p   - pull-off
 b   - bend
 pb  - pre-bend
 r   - bend release (if no number after the r, then release immediately)
 /\  - slide into or out of (from/to "nowhere")
 s   - legato slide
 S   - shift slide
  - natural harmonic
[n]  - artificial harmonic
n(n) - tapped harmonic
 ~   - vibrato
 tr  - trill
 T   - tap
 TP  - trem. picking
 PM  - palm muting
\n/  - tremolo bar dip; n = amount to dip
 \n  - tremolo bar down
 n/  - tremolo bar up
/n\  - tremolo bar inverted dip
 =   - hold bend; also acts as connecting device for hammers/pulls
 <>  - volume swell (louder/softer)
 x   - on rhythm slash represents muted slash
 o   - on rhythm slash represents single note slash

Misc Legend
-----------
 |  - bar
||  - double bar
||o - repeat start
o|| - repeat end
*|  - double bar (ending)
 :  - bar (freetime)
 $  - Segno
 &  - Coda
Tempo markers -  = BPM(8/16=s8/s16), where s8 = swing 8ths, s16 = swing 16ths


            
            
Suggest correction
Creating personal tab
Creating personal tab
You can edit any tab online and save it as your Personal.

You can edit, replace or remove any tab part or add personal notes – all changes will be seen only by you.

Personal tabs can be accessed anytime from any device, even offline.
Learn more »
comments
print report bad tab
2 comments total.
-1 reply
andrew.soli 21 Apr 04, 2017 12:25 PM

Slowhand? Really? There is no way you're stealing Eric Clapton's nickname you slouch

+1 reply
ahconnelly 10 Sep 03, 2017 11:02 PM

<3 Love it!

guest
You may want to rate the tab now too:
select rating
Wanna post a correction for this tab? Suggest correction