Oops, an error
Loading. Please wait.

Take Your Time Bass Tab

530 views 1 this week
no commentswrite comment
1 2 3 4 5
3 more votes to show rating
add to favorites
launch autoscroll
font size
0
reset
guitar tuner
Autoscroll
slow
fast
+/-
esc
set tempo
stop
Help us to improve Ultimate-Guitar.com Take our survey!
×
Difficulty
intermediate
Sion Webbe - Take Your Time - Bass tabs

Standard tuning (EADG)

You can find the tabs divided into blocks first, and the timing and order of the blocks 
marked above the lyrics' lines!

I think it's pretty close to the original! :)

Have fun!

B.

[A]:
------------------------------------------------|
------------------------------------------------|
----3--6--6/8----6--3--4--3---------------------|
-4---------------------------4--4/6----4--1-----|

[A-]:
------------------------------------------------|
------------------------------------------------|
----3--6--6/8----6--3--4--3---------------------|
-4---------------------------4--4/6-------------|

[A+]:
------------------------------------------------|
--------------------------------------------6---|
----3--6--6/8----6--3--4--3-------------6-8-----|
-4---------------------------4--4/6-------------|

[B]:
------------------------------------------------|
------------------------------------------------|
----3--6--6/8-----------------------4---6-------|
-4---------------6--3--4----1---4---------------|

[B-]:
------------------------------------------------|
------------------------------------------------|
----3--6--6/8-----------------------4-----------|
-4---------------6--3--4----1---4---------------|

[C1]
------------------------------------------------|
-6--6---------------------------------------6---|
-------8------------3--4--4-----4---6--6/8------|
----------4----4/6-----------4------------------|

[C2]
------------------------------------------------|
-6------------------------------------------6---|
----8--6------------3--4--4-----4------6/8------|
----------4----4/6-----------4------------------|

[C3]
------------------------------------------------|
-6------------------------------------------6---|
----8--6------------3--4--3-----4---6--6/8------|
----------4----4/6-----------4------------------|

[C4]
------------------------------------------------|
-6----------------------------------------------|
----8--6------------3--4--3-----4---6--6/8------|
----------4----4/6-----------4------------------|

[D]
------------------------------------------------|
------------------------------------------------|
------------------------------------------------|
-2---2---2---2-0-1---1---1---0/1/4---4---4------|

[E1]
------------------------------------------------|
-----6-8-6-----------------6-8-6--6/8-10--------|
-6-8-------8-----------6-8----------------------|
---------------4---4----------------------------|

[E2]
------------------------------------------------|
-----6-8-6--------------------------------------|
-6-8-------8------------------------------------|
---------------4---4---1/8\1--------------------|

Timing and lyrics:

[A]
[B-]

                        [A]
I know exactly what I'm talking about,

'cos I've been there, I've been scared.
                             [B]
So many deals that I've been in & then out,

turned dreams into nightmares
       [A]
Then I realised my wants only criticised my needs (I didn't make enough cheese)
          [B]
I couldn't figure out my wrongs & I found it hard to breath


                  [A]
Have a right to cry (sometimes)

When I'm under the weather

Feels like my world is coming down

And my job could be better
    [B]
That's yesterday's news, maybe tomorrow this is what we can do


           [A]
Seize the day, change your life,

Find all of the limits in the sky
            [B]
Take a moment, clear your mind,

Believe that your angels never lie
              [A]
Change is good, just keep it movin'

Uncover new colours that are kind
            [B]
Different ways, brand new heights...

Don't worry just take your time and you'll be fine

[A-]

                    [B]
Too many people get frightened of lightning

Always strikes them in the same place twice
                  [A]
Never seeking true guidance, it might be,

They need a little direction in life


                  [B]
It's allright to cry (sometimes)

When I'm under the weather

Feels like my world is coming down

And my job could be better
    [A+]
Jeah, that's today's news, you see, tomorrow this is what we can do


             [C1]
Seize the day, change your life

Find all of your limits in the sky
            [C2]
Take a moment, clear your mind

Believe that your angels never lie
              [C3]
Change is good, just keep it movin'

Uncover new colours that are kind
            [C4]
Different ways. Brand new heights
                                              [D]
Don't worry just take your time and you'll be fine


                                                     [E1]
You don't have to be fed-up each & everyday of your life
                                                      [D]
Stop complaining just stop all the hating, open your eyes
                                                   [E2]
And the world will be better if you believe & you try

Stop complaining about what you can't get

You won't know 'till you try

(oh, we wont stop, we won't stop, yeah , oh-oh we won't stop)
We won't stop 'till we try
We won't stop 'till we try
We won't stop, we won't stop, we won't stop 'till we try


          [A]
Seize the day, change your life

Find all of your limits in the sky
            [B]
Take a moment, clear your mind

Believe that your angels never lie
             [A]
Change is good, just keep it movin'

Uncover new colours that are kind
            [B]
Different ways. Brand new heights

Don't worry just take your time and you'll be fine


          [A]
Seize the day, change your life

Find all of your limits in the sky
            [B]
Take a moment, clear your mind

Believe that your angels never lie
             [A]
Change is good, just keep it movin'

Uncover new colours that are kind
            [B]
Different ways. brand new heights

Don't worry just take your time and you'll be fine
Suggest correction
Give kudos to tab author, rate the tab!
1 2 3 4 5
comments
print report bad tab
guest
You may want to rate the tab now too:
select rating
Wanna post a correction for this tab? Suggest correction