Oops, an error
Loading. Please wait.

Lultimo Caffe Insieme Acoustic tab

91 views 6 this week
no commentswrite comment
1 2 3 4 5
3 more votes to show rating
add to favorites
×
Save as Personal and add changes to this tab that will be seen only by you. Learn more ›
×
You can save this tab as Personal to edit and correct it or add notes. All changes will be seen only by you. Learn more »
launch autoscroll
font size
0
reset
how to read this tab
guitar tuner
edit
Autoscroll
slow
fast
+/-
esc
set tempo
stop
L'Ultimo Caffe Insieme (The Last Coffee Together) - Simone Iannarelli

Couldn't find a tab for this piece so I put one together using the lovely performance by Xuanxuan Sun on
youtube (https://www.youtube.com/watch?v=zX5ZwIF1u8o)
I don't have the sheet music so there may be mistakes/differences from the original 
composition but I think
it's close enough (if you notice mistakes please comment!)
If you can please support the original artist (http://www.simoneiannarelli.com/), the 
entire Italian Coffee
collection is worth checking out


e|-------0---0---0---------0--------0------------0---0---0---------0--------0-------|
B|-----4---4---4---4-----4---4----4---4--------4---4---4---4-----4---4----4---4-----|
G|-------1---1---1---------1--------1------------1---1---1---------1--------1-------|
D|-----4---4---4---4-----4---4----4---4--------4---4---4---4-----4---4----4---4-----|
A|--------------------4---------0---2-------------------------4---------0---2-------|
E|-0---------------------------------------0----------------------------------------|

e|------0---0---0---------0--------0------------0---0---0---------0--------0-----|
B|----4---4---4---4-----4---4----4---4--------4---4---4---4-----4---4----4---4---|
G|------1---1---1---------1--------1------------1---1---1---------1--------1-----|
D|----4---4---4---4-----4---4----4---4--------4---4---4---4-----4---4----4---4---|
A|-------------------4---------0---2-------------------------4---------0---2-----|
E|-0---------------------------------------0-------------------------------------|

e|-(19)---0---(19)---------------------------------------------------------------|
B|------4---4--------------------------------------------------------------------|
G|--------1----------------------------------------------------------------------|
D|------4---4--------------------------------------------------------------------|
A|-------------------------------------------------------------------------------|
E|-------------------------------------------------------------------------------|

e|-7------------9p7p5p0--2-4h5p4p0-----------------7h9p7-----------9p7p5p0--2-4h5p4p2p0---------------|
B|----0---0-----0------------------0---0---0---0---------0---0-----0--------------------0---0---0---0-|
G|------8---8------------------------6---6---6-------------8---8--------------------------6---6---6---|
D|------6---6------------------------2---2---2-------------6---6--------------------------2---2---2---|
A|-------------------------0--------------------------------------------------0-----------------------|
E|-0-----------------------------------------------0--------------------------------------------------|

e|-0h2h4-------4-------0h2h4--------------0h2h4-------4-------4h5p4p0h4-------------------------------|
B|-------0---0---0---0-------0---0-----0--------0---0---0---0-----------0---0---0---0-----------------|
G|-----------------------------------1----------------------------------------------------------------|
D|---------2-------4-----------2---4--------------2-------4---------------2---4---6-------------------|
A|-4-----------2-------0------------------4-----------2-------0---------------------------------------|
E|----------------------------------------------------------------------------------------------------|

e|11-----------14-12-11--11h12p11p9------------------12-14-16-----------14-12-11--11h12p11p9-----------------|
B|---0----0-----0--0------0---------0----0----0----0----------0----0-----0--0------0---------0----0----0----0|
G|-----13---13----13------------------13---13---13--------------14---13----13------------------13---13---13--|
D|-----11---11----11------------------11---11---11--------------11---11----11------------------11---11---11--|
A|------------------------0--------------------------------------------------------0-------------------------|
E|0---------------------------------------------------0------------------------------------------------------|

e|-7---------9p7---------4h5p4p0-------------------------------------------------------------------------|
B|----0---0---------10-9----------0---0---0---0----------------------------------------------------------|
G|------8-----------8--8------------6---6---6------------------------------------------------------------|
D|----------------9-----------------2---2---2------------------------------------------------------------|
A|-----------------------0-------------------------------------------------------------------------------|
E|-9---------7-------------------------------------------------------------------------------------------|

e|-0h2h4-------4-------0h2h4--------------0h2h4-------5p4-------7p5p4---------------------------------|
B|-------0---0---0---0-------0---0-----0--------0---0-----0---0-------0---0---0---0-------------------|
G|-----------------------------------1----------------------------------------------------------------|
D|---------2-------4-----------2---4--------------2---------4---------------4---6---------------------|
A|-4-----------2-------0------------------4-----------2---------0-------7-----------------------------|
E|----------------------------------------------------------------------------------------------------|

Repeat (with minor changes)

e|-------0---0---0---------0--------0------------0---0---0---------0--------0-----|
B|-----4---4---4---4-----4---4----4---4--------4---4---4---4-----4---4----4---4---|
G|-------1---1---1---------1--------1------------1---1---1---------1--------1-----|
D|-----4---4---4---4-----4---4----4---4--------4---4---4---4-----4---4----4---4---|
A|--------------------4---------0---2-------------------------4---------0---2-----|
E|-0---------------------------------------0--------------------------------------|

e|------0---0---0---------0--------0------------0---0---0---------0--------0-----|
B|----4---4---4---4-----4---4----4---4--------4---4---4---4-----4---4----4---4---|
G|------1---1---1---------1--------1------------1---1---1---------1--------1-----|
D|----4---4---4---4-----4---4----4---4--------4---4---4---4-----4---4----4---4---|
A|-------------------4---------0---2-------------------------4---------0---2-----|
E|-0---------------------------------------0-------------------------------------|

e|-(19)---0---(19)---------------------------------------------------------------|
B|------4---4--------------------------------------------------------------------|
G|--------1----------------------------------------------------------------------|
D|------4---4--------------------------------------------------------------------|
A|-------------------------------------------------------------------------------|
E|-------------------------------------------------------------------------------|

e|-7------------9p7p5p0--2-4h5p4p0-----------------7h9p7-----------9p7p5p0--2-4h5p4p2p0---------------|
B|----0---0-----0------------------0---0---0---0---------0---0-----0--------------------0---0---0---0-|
G|------8---8------------------------6---6---6-------------8---8--------------------------6---6---6---|
D|------6---6------------------------2---2---2-------------6---6--------------------------2---2---2---|
A|-------------------------0--------------------------------------------------0-----------------------|
E|-0-----------------------------------------------0--------------------------------------------------|

e|-0h2h4-------4-------0h2h4--------------0h2h4-------4-------4h5p4p0h4-------------------------------|
B|-------0---0---0---0-------0---0-----0--------0---0---0---0-----------0---0---0---0-----------------|
G|-----------------------------------1----------------------------------------------------------------|
D|---------2-------4-----------2---4--------------2-------4---------------2---4---6-------------------|
A|-4-----------2-------0------------------4-----------2-------0---------------------------------------|
E|----------------------------------------------------------------------------------------------------|

e|-11h12p11------------14-12-11--11h12p11p9------------------|
B|-----------0----0-----0--0------0---------0----0----0----0-|
G|-------------13---13----13------------------13---13---13---|
D|-------------11---11----11------------------11---11---11---|
A|--------------------------------0--------------------------|
E|-0---------------------------------------------------------|

e|-12-14-16-----------14-12-11--11h12p11p9-9------------------|
B|----------0----0-----0--0------0-----------0----0----0----0-|
G|------------14---13----13--------------------13---13---13---|
D|------------11---11----11--------------------11---11---11---|
A|-------------------------------0----------------------------|
E|--0---------------------------------------------------------|

e|-7---------9p7---------4h5p4p0-------------------------------------------------------------------------|
B|----0---0---------10-9----------0---0---0---0----------------------------------------------------------|
G|------8-----------8--8------------6---6---6------------------------------------------------------------|
D|----------------9-----------------2---2---2------------------------------------------------------------|
A|-----------------------0-------------------------------------------------------------------------------|
E|-9---------7-------------------------------------------------------------------------------------------|

e|-0h2h4-------4-------0h2h4--------------0h2h4-------5p4-------7p5p4---------------------------------|
B|-------0---0---0---0-------0---0-----0--------0---0-----0---0-------0---0---0---0-------------------|
G|-----------------------------------1----------------------------------------------------------------|
D|---------2-------4-----------2---4--------------2---------4---------------4---6---------------------|
A|-4-----------2-------0------------------4-----------2---------0-------7-----------------------------|
E|----------------------------------------------------------------------------------------------------|

ending

e|-------0---0---0---------0--------0------------0---0---0---------0--------0-------|
B|-----4---4---4---4-----4---4----4---4--------4---4---4---4-----4---4----4---4-----|
G|-------1---1---1---------1--------1------------1---1---1---------1--------1-------|
D|-----4---4---4---4-----4---4----4---4--------4---4---4---4-----4---4----4---4-----|
A|--------------------4---------0---2-------------------------4---------0---2-------|
E|-0---------------------------------------0----------------------------------------|

e|------0---0---0---------0--------0------------0---0---0---------0--------0-----|
B|----4---4---4---4-----4---4----4---4--------4---4---4---4-----4---4----4---4---|
G|------1---1---1---------1--------1------------1---1---1---------1--------1-----|
D|----4---4---4---4-----4---4----4---4--------4---4---4---4-----4---4----4---4---|
A|-------------------4---------0---2-------------------------4---------0---2-----|
E|-0---------------------------------------0-------------------------------------|

e|-(19)---0---(19)---------------------------------------------------------------|
B|------4---4--------------------------------------------------------------------|
G|--------1----------------------------------------------------------------------|
D|------4---4--------------------------------------------------------------------|
A|-------------------------------------------------------------------------------|
E|-------------------------------------------------------------------------------|

e|-0h2h4--------4---------0h2h4------------------0h2h4--------5p4---------4h5p4p0h4-----------------7-------|
B|-------0---0-----0---0---------0---0---0---0---------0---0------0---0-------------0---0---0---0---0-------|
G|-----------------------------------------1--------------------------------------------------------8-------|
D|---------2---------4-------------2---4-----------------2----------4-----------------2---4---6-----6-------|
A|-0------------2--------------------------------0------------2-------------------------------------7-------|
E|------------------------0----------------------------------------------0--------------------------0-------|



************************************

|(n)   Harmonic
| h    Hammer-on
| p    Pull-off

************************************

            
            
Suggest correction
Creating personal tab
Creating personal tab
You can edit any tab online and save it as your Personal.

You can edit, replace or remove any tab part or add personal notes – all changes will be seen only by you.

Personal tabs can be accessed anytime from any device, even offline.
Learn more »
Give kudos to tab author, rate the tab!
1 2 3 4 5
comments
print report bad tab
guest
You may want to rate the tab now too:
select rating
Wanna post a correction for this tab? Suggest correction