Oops, an error
Loading. Please wait.

Someone Somewhere In Summertime Bass Tab

4,920 views 24 this week
no commentswrite comment
1 2 3 4 5
please rate
add to favorites
launch autoscroll
font size
0
reset
guitar tuner
Autoscroll
slow
fast
+/-
esc
set tempo
stop
Help us to improve Ultimate-Guitar.com Take our survey!
×
Author
Someone, Somewhere in Summertime
Simple Minds


Intro

|--------------------------------------------------|
|--------------------------------------------------|
|-9--x9----9---7-9-9--x-9----9---7-9-5---5--7------|
|--------9---9-------------9---9----------------7--| x3 (only play first half 3rd time)

Verse

|-----------------------------------|
|-----------------------------------|
|-9--9----9---7----9--9----9----7---|
|-------9---9---9--------9----9---9-|


|---------------|
|---------------|
|-2--2--0--0----|
|---------------| x2

Pre-chorus

|--------------------------------------|
|--------------------------------------|
|-5--5--0--7-----7--9--9----9---7------|
|-------------7-----------9---9---9----| x2

Chorus

|-----------------------------------------------------|
|-----------------------------------------------------|
|-5--5------7-x7--9-x9----9---7----9-x9----9---7------|
|-------\5--------------9---9---9--------9---9---9----| x4


Repeat all this, Chorus during fade

This is it, although there are many opportunities for extra notes. The tempo should be clear
from listening to the record.  
Suggest correction
Give kudos to tab author, rate the tab!
1 2 3 4 5
comments
print report bad tab
guest
You may want to rate the tab now too:
select rating
Wanna post a correction for this tab? Suggest correction