Oops, an error
Loading. Please wait.

Addicted Tab

version 6
version 6
2,774 views 9 this week
1 commentread comment
1 2 3 4 5
please rate
add to favorites
launch autoscroll
font size
0
reset
how to read this tab
guitar tuner
Autoscroll
slow
fast
+/-
esc
set tempo
stop
Help us to improve Ultimate-Guitar.com Take our survey!
×
Author
Difficulty
tuning: all flatted and drop d for guitar 2, guitar 1 standard

intro: guitar 1
e--------14-13---------14-13---------14-13---------14-13--->
B-------------14------------14------------14------------14->
G--13--13--------13--13--------13--13--------13--13--------> play this
D----11------------11------------11------------11----------> a total
A----------------------------------------------------------> of 3 times
E---------------------------------------------------------->

come in after that ^^ is played once
intro: guitar 2
eb---------------------------------------------------------->
Bb-33~~------------------------8-8-8-8-8-8-8-10101010101010->
Gb-22~~------------------------7-7-7-7-7-7-7-9-9-9-9-9-9-9--> repeat
Db-00~~------------------------5-5-5-5-5-5-5-7-7-7-7-7-7-7-->
Ab-00~~------------------------5-5-5-5-5-5-5-7-7-7-7-7-7-7-->
Db-00~~------------------------5-5-5-5-5-5-5-7-7-7-7-7-7-7-->

verse 1:
eb------------------------------------------------------------------>
Bb-3~~-------------------3-----3-----3----7-----8-----8-----8-88888->
Gb-2~~-------------------2-----2-----2----7-----7-----7-----7-77777->
Db-0~~-(bass guitar)-0xxx0-0xxx0-0xxx0-4xx4-5xxx5-5xxx5-5xxx5-55555->
Ab-0~~---------------0xxx--0xxx--0xxx--4xx--5xxx--5xxx--5xxx--55555->
Db-0~~---------------0xxx--0xxx--0xxx--4xx--5xxx--5xxx--5xxx--55555->
I heard you're doing okay But I want you to know I'm addic- I'm addicted to
you I can't pretend I don't care When you don't think about me Do you think
I deserve this?

eb------------------------->
Bb-----5-----7-----8-10~~-->
Gb-----4-----6-----7-9~~--->
Db-222-2-444-4-555-5-7~~--->
Ab-222---444---555---7~~--->
Db-222---444---555---7~~--->
I tried to make you happy but you left anyway

chorus 1: guitar 2 (r= 10th fret)
eb------------------------------------------------------------------>
Bb-3333333-8888---rrrr-3333333-8888---rrrr-----55555555-rrrrrrr----->
Gb-2222222-7777---9999-2222222-7777---9999-----44444444-9999999----->
Db-0000000-5555-0-7777-0000000-5555-0-7777-----22222222-7777777----->
Ab-0000000-5555-0-7777-0000000-5555-0-7777-----22222222-7777777----->
Db-0000000-5555-0-7777-0000000-5555-0-7777-5p4\22222222-7777777-5p4\>
I'm trying to forget that I'm addicted to you But I want it and I need it
I'm addicted to you Now it's over Can't forget what you said And I

                     \/ start repeating “intro: guitar 1” right there
e------------------------------------------------------------------->
B-5555555-rrrrrrr----8888~~-r--------------------------------------->
G-4444444-9999999----7777~~-9--------------------------------------->
D-2222222-7777777----5555~~-7-(< start repeating “intro: guitar 2”-->
A-2222222-7777777----5555~~-7---right there)------------------------>
D-2222222-7777777----5555~~-7--------------------------------------->
never wanna do this again Heartbreaker Heartbreaker Heartbreaker

repeat verse 1 tab for verse 2:
Since the day I met you And after all we've been through I'm still addic-I'm
addicted to you I think you know that it's true I'd run a thousand
miles to get you Do you think I deserve this? I tried to make you happy I
did all that I could Just to keep you But you left anyway

chorus 2:
eb------------------------------------------------------------------>
Bb-3333333-8888---rrrr-3333333-8888---rrrr-----55555555-rrrrrrr----->
Gb-2222222-7777---9999-2222222-7777---9999-----44444444-9999999----->
Db-0000000-5555-0-7777-0000000-5555-0-7777-----22222222-7777777----->
Ab-0000000-5555-0-7777-0000000-5555-0-7777-----22222222-7777777----->
Db-0000000-5555-0-7777-0000000-5555-0-7777-5-4-22222222-7777777-5-4->
I'm trying to forget that I'm addicted to you But I want it and I need it
I'm addicted to you Now it's over Can't forget what you said And I

                     \/ bridge starts here
e------------------------->
B-5555555-rrrrrrr----8~~-->
G-4444444-9999999----7~~-->
D-2222222-7777777----5~~-->
A-2222222-7777777----5~~-->
D-2222222-7777777----5~~-->
never wanna do this again Heartbreaker

bridge: guitar 3 (soft)
eb-------------------------------------------------->
Bb---8-8---7-7---5-5---3-3---8-8---7-7---5-5---1010->
Gb---7-7---7-7---4-4---2-2---7-7---7-7---4-4---9-9-->
Db---5-5---4-4---2-2---0-0---5-5---5-5---2-2---7-7--> repeat
Ab---5-5---5-5---2-2---0-0---5-5---5-5---2-2---7-7-->
Db-5-5-5-4-4-4-2-2-2-0-0-0-5-5-5-4-4-4-2-2-2-7-7-7-->
Heartbreaker How long will I be waiting? Until the end of

eb---------------------------------------------------------------->
Bb---------8-8--7-7--5-5--3-3---------888888-rrrrrr-888888-rrrrrr->
Gb---------7-7--7-7--4-4--2-2---------777777-999999-777777-999999->
Db-7++-+-7-5-5--4-4--2-2--0-0-2-2-4-4-555555-777777-555555-777777->
Ab-7++-+-7-5-5--5-5--2-2--0-0-2-2-4-4-555555-777777-555555-777777->
Db-7++-+-7-5-5--4-4--2-2--0-0-2-2-4-4-555555-777777-555555-777777->
time I don't know why I'm still waiting I can't make you mine

fill in:
eb------------------------->
Bb-5555-7777-8888-rrrr----->
Gb-4444-7777-7777-9999----->
Db-2222-4444-5555-7777-+++->
Ab-2222-5555-5555-7777-+++->
Db-2222-4444-5555-7777-+++->

start repeating the chorus for this long:
“I'm trying to forget that I'm addicted to you But I want it and I need it
I'm addicted to you”

then repeat chorus 1 (the repeated intro on the end of chorus 1 accompanies
the following lyrics)

Heartbreaker Heartbreaker
I'm addicted to you
Heartbreaker
I'm addicted to you
Heartbreaker
I'm addicted to you
Heartbreaker
I'm addicted to you
Heartbreaker

end on:
eb----->
Bb-3~~->
Gb-2~~->
Db-0~~->
Ab-0~~->
Db-0~~->
Suggest correction
What's this?
You can suggest a correction to this tab. Community and Mods will review your correction and vote to approve or reject it.
comments
We did not receive enough feedback on this tab! Please rate:
print report bad tab
1 2 3 4 5
1 comment total.
0 reply
Bl20 41 wrote on July 16 2008, 12:42 pm

dude! the intro isn't right the intro is

E------------------------------
B------------------------7*----
G-------7*---------5*---7*-----
D----7*----7*----------7*------
A------------------------------
E------------------------------

The tuning is in Eb in the intro uses natural harmonics.

guest
You may want to rate the tab now too:
select rating
Please do not post tabs as comments. Select "correction" instead!