Oops, an error
Loading. Please wait.

Boom tab

version 1
version 1

Whole song

4,541 views 18 this week
no commentswrite comment
1 2 3 4 5
x 4
add to favorites
×
Save as Personal and add changes to this tab that will be seen only by you. Learn more ›
×
You can save this tab as Personal to edit and correct it or add notes. All changes will be seen only by you. Learn more »
launch autoscroll
font size
0
reset
how to read this tab
guitar tuner
edit
Autoscroll
slow
fast
+/-
esc
set tempo
stop
BOOM

e|--------------------------------------------------------|
B|--------------------------------------------------------|
G|---------------7-7-7-7-7-7--4-4-4-4-4-4-----------------|
D|--5-5-5-5-5-5--7-7-7-7-7-7--4-4-4-4-4-4--7-7-7-7-7-7----|
A|--5-5-5-5-5-5--5-5-5-5-5-5--2-2-2-2-2-2--7-7-7-7-7-7----|
E|--3-3-3-3-3-3----------------------------5-5-5-5-5-5----|
    BOOM BA BA BA BA BA BA    BOOM BA BA BA BA BA BA

e|--------------------------------------------------------|
B|----10-8-7------7--------------10-8-7-----7-------------|
G|--7---------7-9---9-7--------7--------7-9---9-7---------|
D|--------------------------------------------------------|
A|--------------------------------------------------------|
E|--------------------------------------------------------|

e|--------------------------------------------------------|
B|--------------------------------------------------------|
G|---------------7-7-7-7-7-7--4-4-4-4-4-4-----------------|
D|--5-5-5-5-5-5--7-7-7-7-7-7--4-4-4-4-4-4--7-7-7-7-7-7----|
A|--5-5-5-5-5-5--5-5-5-5-5-5--2-2-2-2-2-2--7-7-7-7-7-7----|
E|--3-3-3-3-3-3----------------------------5-5-5-5-5-5----|
    BOOM BA BA BA BA BA BA    BOOM BA BA BA BA BA BA

e|--------------------------------------------------------|
B|----10-8-7------7--------------10-8-7-----7-------------|
G|--7---------7-9---9-7--------7--------7-9---9-7---------|
D|--------------------------------------------------------|
A|--------------------------------------------------------|
E|--------------------------------------------------------|

e|--------------------------------------------------------|
B|--------------------------------------------------------|
G|---------------7-7-7-7-7-7--4-4-4-4-4-4-----------------|
D|--5-5-5-5-5-5--7-7-7-7-7-7--4-4-4-4-4-4--7-7-7-7-7-7----|
A|--5-5-5-5-5-5--5-5-5-5-5-5--2-2-2-2-2-2--7-7-7-7-7-7----|
E|--3-3-3-3-3-3----------------------------5-5-5-5-5-5----|
    IN A WORLD   HEARTACHE    SEEMS LIKE   EVERYONE’S
    FULL OF                                BURNING OUT

e|--------------------------------------------------------|
B|--------------------------------------------------------|
G|---------------7-7-7-7-7-7--4-4-4-4-4-4-----------------|
D|--5-5-5-5-5-5--7-7-7-7-7-7--4-4-4-4-4-4--7-7-7-7-7-7----|
A|--5-5-5-5-5-5--5-5-5-5-5-5--2-2-2-2-2-2--7-7-7-7-7-7----|
E|--3-3-3-3-3-3----------------------------5-5-5-5-5-5----|
    YOU AND ME   OUR WAY      AND THIS     LOVE AIN’T 
    WE DID IT                              RUNNING OUT

e|--------------------------------------------------------|
B|--------------------------------------------------------|
G|---------------7-7-7-7-7-7--4-4-4-4-4-4-----------------|
D|--5-5-5-5-5-5--7-7-7-7-7-7--4-4-4-4-4-4--7-7-7-7-7-7----|
A|--5-5-5-5-5-5--5-5-5-5-5-5--2-2-2-2-2-2--7-7-7-7-7-7----|
E|--3-3-3-3-3-3----------------------------5-5-5-5-5-5----|
    WE GOT THAT  FIRE THAT    GLOWS

e|--------------------------------------------------------|
B|--------------------------------------------------------|
G|---------------7-7-7-7-7-7--4-4-4-4-4-4-----------------|
D|--5-5-5-5-5-5--7-7-7-7-7-7--4-4-4-4-4-4--7-7-7-7-7-7----|
A|--5-5-5-5-5-5--5-5-5-5-5-5--2-2-2-2-2-2--7-7-7-7-7-7----|
E|--3-3-3-3-3-3----------------------------5-5-5-5-5-5----|
    AND I JUST   NEED YOU TO  KNOW

e|-------------------------------------------------------------|
B|-------------------------------------------------------------|
G|------------------7-7-7-7-7-7---4-4-4-4-4-4------------------|
D|--5-5-5-5-5-5-----7-7-7-7-7-7---4-4-4-4-4-4---7-7-7-7-7-7----|
A|--5-5-5-5-5-5-----5-5-5-5-5-5---2-2-2-2-2-2---7-7-7-7-7-7----|
E|--3-3-3-3-3-3---------------------------------5-5-5-5-5-5----|
    YOU’RE MY       MIGHT SING    YOU SHINE     LIGHTERS IN THE
    FAVORITE SONG   ALONG         BRIGHT LIKE   DARK AND

e|--------------------------------------------------------|
B|--------------------------------------------------------|
G|---------------7-7-7-7-7-7--4-4-4-4-4-4-----------------|
D|--5-5-5-5-5-5--7-7-7-7-7-7--4-4-4-4-4-4--7-7-7-7-7-7----|
A|--5-5-5-5-5-5--5-5-5-5-5-5--2-2-2-2-2-2--7-7-7-7-7-7----|
E|--3-3-3-3-3-3----------------------------5-5-5-5-5-5----|
    YOU’RE MY    THE BEST     YOU STILL    CRAZY LITTLE
    CLARITY      PART OF ME   MAKE MY      HEART GO

e|--------------------------------------------------------|
B|--------------------------------------------------------|
G|---------------7-7-7-7-7-7--4-4-4-4-4-4-----------------|
D|--5-5-5-5-5-5--7-7-7-7-7-7--4-4-4-4-4-4--7-7-7-7-7-7----|
A|--5-5-5-5-5-5--5-5-5-5-5-5--2-2-2-2-2-2--7-7-7-7-7-7----|
E|--3-3-3-3-3-3----------------------------5-5-5-5-5-5----|
    BOOM BA BA BA BA BA BA    BOOM BA BA BA BA BA BA

e|--------------------------------------------------------|
B|----10-8-7------7--------------10-8-7-----7-------------|
G|--7---------7-9---9-7--------7--------7-9---9-7---------|
D|--------------------------------------------------------|
A|--------------------------------------------------------|
E|--------------------------------------------------------|

e|--------------------------------------------------------|
B|--------------------------------------------------------|
G|---------------7-7-7-7-7-7--4-4-4-4-4-4-----------------|
D|--5-5-5-5-5-5--7-7-7-7-7-7--4-4-4-4-4-4--7-7-7-7-7-7----|
A|--5-5-5-5-5-5--5-5-5-5-5-5--2-2-2-2-2-2--7-7-7-7-7-7----|
E|--3-3-3-3-3-3----------------------------5-5-5-5-5-5----|
    BOOM BA BA BA BA BA BA    YOU STILL    CRAZY LITTLE 
                              MAKE MY      HEART GO

e|--------------------------------------------------------|
B|----10-8-7------7--------------10-8-7-----7-------------|
G|--7---------7-9---9-7--------7--------7-9---9-7---------|
D|--------------------------------------------------------|
A|--------------------------------------------------------|
E|--------------------------------------------------------|

e|----------------------------------|
B|-------------10-8-7------7--------|
G|-----------7---------7-9---9-7----|
D|--5-------------------------------|
A|--5-------------------------------|
E|--3-------------------------------|
    BOOM

e|--------------------------------------------------------|
B|--------------------------------------------------------|
G|---------------7-7-7-7-7-7--4-4-4-4-4-4-----------------|
D|--5-5-5-5-5-5--7-7-7-7-7-7--4-4-4-4-4-4--7-7-7-7-7-7----|
A|--5-5-5-5-5-5--5-5-5-5-5-5--2-2-2-2-2-2--7-7-7-7-7-7----|
E|--3-3-3-3-3-3----------------------------5-5-5-5-5-5----|
    DON’T WORRY  TOMORROW     CAUSE THESE  WALLS WILL
    ABOUT                                  NEVER FALL

e|---------------------------------------------------------|
B|---------------------------------------------------------|
G|----------------7-7-7-7-7-7--4-4-4-4-4-4-----------------|
D|--5-5-5-5-5-5---7-7-7-7-7-7--4-4-4-4-4-4--7-7-7-7-7-7----|
A|--5-5-5-5-5-5---5-5-5-5-5-5--2-2-2-2-2-2--7-7-7-7-7-7----|
E|--3-3-3-3-3-3-----------------------------5-5-5-5-5-5----|
    I JUST WANNA  WORLD KNOW   WHAT WE      GOTS UNBREAKABLE
    LET THE

e|---------------------------------------------------------|
B|---------------------------------------------------------|
G|----------------7-7-7-7-7-7--4-4-4-4-4-4-----------------|
D|--5-5-5-5-5-5---7-7-7-7-7-7--4-4-4-4-4-4--7-7-7-7-7-7----|
A|--5-5-5-5-5-5---5-5-5-5-5-5--2-2-2-2-2-2--7-7-7-7-7-7----|
E|--3-3-3-3-3-3-----------------------------5-5-5-5-5-5----|
    WE GOT IT     UNDER        CONTROL

e|---------------------------------------------------------|
B|---------------------------------------------------------|
G|----------------7-7-7-7-7-7--4-4-4-4-4-4-----------------|
D|--5-5-5-5-5-5---7-7-7-7-7-7--4-4-4-4-4-4--7-7-7-7-7-7----|
A|--5-5-5-5-5-5---5-5-5-5-5-5--2-2-2-2-2-2--7-7-7-7-7-7----|
E|--3-3-3-3-3-3-----------------------------5-5-5-5-5-5----|
    WERE GOOD     WERE SOLID   WERE GOLD

e|-------------------------------------------------------------|
B|-------------------------------------------------------------|
G|------------------7-7-7-7-7-7---4-4-4-4-4-4------------------|
D|--5-5-5-5-5-5-----7-7-7-7-7-7---4-4-4-4-4-4---7-7-7-7-7-7----|
A|--5-5-5-5-5-5-----5-5-5-5-5-5---2-2-2-2-2-2---7-7-7-7-7-7----|
E|--3-3-3-3-3-3---------------------------------5-5-5-5-5-5----|
    YOU’RE MY       MIGHT SING    YOU SHINE     LIGHTERS IN THE
    FAVORITE SONG   ALONG         BRIGHT LIKE   DARK AND

e|--------------------------------------------------------|
B|--------------------------------------------------------|
G|---------------7-7-7-7-7-7--4-4-4-4-4-4-----------------|
D|--5-5-5-5-5-5--7-7-7-7-7-7--4-4-4-4-4-4--7-7-7-7-7-7----|
A|--5-5-5-5-5-5--5-5-5-5-5-5--2-2-2-2-2-2--7-7-7-7-7-7----|
E|--3-3-3-3-3-3----------------------------5-5-5-5-5-5----|
    YOU’RE MY    THE BEST     YOU STILL    CRAZY LITTLE
    CLARITY      PART OF ME   MAKE MY      HEART GO

e|--------------------------------------------------------|
B|--------------------------------------------------------|
G|---------------7-7-7-7-7-7--4-4-4-4-4-4-----------------|
D|--5-5-5-5-5-5--7-7-7-7-7-7--4-4-4-4-4-4--7-7-7-7-7-7----|
A|--5-5-5-5-5-5--5-5-5-5-5-5--2-2-2-2-2-2--7-7-7-7-7-7----|
E|--3-3-3-3-3-3----------------------------5-5-5-5-5-5----|
    BOOM BA BA BA BA BA BA    BOOM BA BA BA BA BA BA

e|--------------------------------------------------------|
B|----10-8-7------7--------------10-8-7-----7-------------|
G|--7---------7-9---9-7--------7--------7-9---9-7---------|
D|--------------------------------------------------------|
A|--------------------------------------------------------|
E|--------------------------------------------------------|

e|--------------------------------------------------------|
B|--------------------------------------------------------|
G|---------------7-7-7-7-7-7--4-4-4-4-4-4-----------------|
D|--5-5-5-5-5-5--7-7-7-7-7-7--4-4-4-4-4-4--7-7-7-7-7-7----|
A|--5-5-5-5-5-5--5-5-5-5-5-5--2-2-2-2-2-2--7-7-7-7-7-7----|
E|--3-3-3-3-3-3----------------------------5-5-5-5-5-5----|
    BOOM BA BA BA BA BA BA    YOU STILL    CRAZY LITTLE 
                              MAKE MY      HEART GO

e|--------------------------------------------------------|
B|----10-8-7------7--------------10-8-7-----7-------------|
G|--7---------7-9---9-7--------7--------7-9---9-7---------|
D|--------------------------------------------------------|
A|--------------------------------------------------------|
E|--------------------------------------------------------|

e|----------------------------------|
B|-------------10-8-7------7--------|
G|-----------7---------7-9---9-7----|
D|--5-------------------------------|
A|--5-------------------------------|
E|--3-------------------------------|
    BOOM

[Piano part]
e|--------------------------------------------------------|
B|----10-8-7------7--------------10-8-7-----7-------------|
G|--7---------7-9---9-7--------7--------7-9---9-7---------|
D|--------------------------------------------------------|
A|--------------------------------------------------------|
E|--------------------------------------------------------|
    YOU MAKE MY CRAZY          
    LITTLE HEART GO

e|--------------------------------------------------------|
B|----10-8-7------7--------------10-8-7-----7-------------|
G|--7---------7-9---9-7--------7--------7-9---9-7---------|
D|--------------------------------------------------------|
A|--------------------------------------------------------|
E|--------------------------------------------------------| 
    AND NOW I NEVER            (CRAZY LITTLE HEART GO)
    WANNA LET GO               (CRAZY LITTLE HEART GO)

e|--------------------------------------------------------|
B|----10-8-7------7--------------10-8-7-----7-------------|
G|--7---------7-9---9-7--------7--------7-9---9-7---------|
D|--------------------------------------------------------|
A|--------------------------------------------------------|
E|--------------------------------------------------------|
    YOU MAKE MY CRAZY          (CRAZY LITTLE HEART GO)     
    LITTLE HEART GO            (CRAZY LITTLE HEART GO)

e|--------------------------------------------------------|
B|----10-8-7------7--------------10-8-7-------------------|
G|--7---------7-9---9-7--------7--------7-----------------|
D|--------------------------------------------------------|
A|--------------------------------------------------------|
E|--------------------------------------------------------| 
    AND NOW I NEVER            
    I NEVER I NEVER
    WANNA LET GO              

e|-------------------------------------------------------------|
B|-------------------------------------------------------------|
G|------------------7-7-7-7-7-7---4-4-4-4-4-4------------------|
D|--5-5-5-5-5-5-----7-7-7-7-7-7---4-4-4-4-4-4---7-7-7-7-7-7----|
A|--5-5-5-5-5-5-----5-5-5-5-5-5---2-2-2-2-2-2---7-7-7-7-7-7----|
E|--3-3-3-3-3-3---------------------------------5-5-5-5-5-5----|
    YOU’RE MY       MIGHT SING    YOU SHINE     LIGHTERS IN THE
    FAVORITE SONG   ALONG         BRIGHT LIKE   DARK AND

e|--------------------------------------------------------|
B|--------------------------------------------------------|
G|---------------7-7-7-7-7-7--4-4-4-4-4-4-----------------|
D|--5-5-5-5-5-5--7-7-7-7-7-7--4-4-4-4-4-4--7-7-7-7-7-7----|
A|--5-5-5-5-5-5--5-5-5-5-5-5--2-2-2-2-2-2--7-7-7-7-7-7----|
E|--3-3-3-3-3-3----------------------------5-5-5-5-5-5----|
    YOU’RE MY    THE BEST     YOU STILL    CRAZY LITTLE
    CLARITY      PART OF ME   MAKE MY      HEART GO

e|-------------------------------------------------------------|
B|-------------------------------------------------------------|
G|------------------7-7-7-7-7-7---4-4-4-4-4-4------------------|
D|--5-5-5-5-5-5-----7-7-7-7-7-7---4-4-4-4-4-4---7-7-7-7-7-7----|
A|--5-5-5-5-5-5-----5-5-5-5-5-5---2-2-2-2-2-2---7-7-7-7-7-7----|
E|--3-3-3-3-3-3---------------------------------5-5-5-5-5-5----|
    YOU’RE MY       MIGHT SING    YOU SHINE     LIGHTERS IN THE
    FAVORITE SONG   ALONG         BRIGHT LIKE   DARK AND

e|--------------------------------------------------------|
B|--------------------------------------------------------|
G|---------------7-7-7-7-7-7--4-4-4-4-4-4-----------------|
D|--5-5-5-5-5-5--7-7-7-7-7-7--4-4-4-4-4-4--7-7-7-7-7-7----|
A|--5-5-5-5-5-5--5-5-5-5-5-5--2-2-2-2-2-2--7-7-7-7-7-7----|
E|--3-3-3-3-3-3----------------------------5-5-5-5-5-5----|
    YOU’RE MY    THE BEST     YOU STILL    CRAZY LITTLE
    CLARITY      PART OF ME   MAKE MY      HEART GO

e|--------------------------------------------------------|
B|--------------------------------------------------------|
G|---------------7-7-7-7-7-7--4-4-4-4-4-4-----------------|
D|--5-5-5-5-5-5--7-7-7-7-7-7--4-4-4-4-4-4--7-7-7-7-7-7----|
A|--5-5-5-5-5-5--5-5-5-5-5-5--2-2-2-2-2-2--7-7-7-7-7-7----|
E|--3-3-3-3-3-3----------------------------5-5-5-5-5-5----|
    BOOM BA BA BA BA BA BA    BOOM BA BA BA BA BA BA

e|--------------------------------------------------------|
B|----10-8-7------7--------------10-8-7-----7-------------|
G|--7---------7-9---9-7--------7--------7-9---9-7---------|
D|--------------------------------------------------------|
A|--------------------------------------------------------|
E|--------------------------------------------------------|

e|--------------------------------------------------------|
B|--------------------------------------------------------|
G|---------------7-7-7-7-7-7--4-4-4-4-4-4-----------------|
D|--5-5-5-5-5-5--7-7-7-7-7-7--4-4-4-4-4-4--7-7-7-7-7-7----|
A|--5-5-5-5-5-5--5-5-5-5-5-5--2-2-2-2-2-2--7-7-7-7-7-7----|
E|--3-3-3-3-3-3----------------------------5-5-5-5-5-5----|
    BOOM BA BA BA BA BA BA    YOU STILL    CRAZY LITTLE 
                              MAKE MY      HEART GO BOOM

e|--------------------------------------------------------|
B|----10-8-7------7--------------10-8-7-----7-------------|
G|--7---------7-9---9-7--------7--------7-9---9-7---------|
D|--------------------------------------------------------|
A|--------------------------------------------------------|
E|--------------------------------------------------------|

            
            
Suggest correction
Creating personal tab
Creating personal tab
You can edit any tab online and save it as your Personal.

You can edit, replace or remove any tab part or add personal notes – all changes will be seen only by you.

Personal tabs can be accessed anytime from any device, even offline.
Learn more »
comments
print report bad tab
guest
You may want to rate the tab now too:
select rating
Wanna post a correction for this tab? Suggest correction