Oops, an error
Loading. Please wait.

Cant Keep My Hands Off You tab

version 2
version 2

Whole song

Interactive

12,493 views 9 this week
2 commentsread comments
1 2 3 4 5
x 6
add to favorites
×
Save as Personal and add changes to this tab that will be seen only by you. Learn more ›
×
You can save this tab as Personal to edit and correct it or add notes. All changes will be seen only by you. Learn more »
launch autoscroll
font size
0
reset
how to read this tab
guitar tuner
edit
Autoscroll
slow
fast
+/-
esc
set tempo
stop
Author
Difficulty
-------------------------------------------
 Can't Keep My Hands Off You ~ Simple Plan
-------------------------------------------
Album: Get Your Heart On!   (2011)

Tabbed By: Russcool
(I know, pretty lame name)

Tuning: Standard

Tempo: About 115

Key: D

Timing: 4/4



INTRO   

   Guitar 1
E |----------------------------|----------------------------|
B |----------------------------|----------------------------|
G |--7-----7--7--7-----7--7----|--7-----7--7--7-----7--7----|   x2
D |--7-----7--7--7-----7--7----|--7-----7--7--7-----7--7----|
A |--5-----5--5--x-----x--x----|--x-----x--x--x-----x--x----|
E |--------------5-----5--5----|--7-----7--7--5-----5--5----|

Let's go!

Guitar 1
----------------------------|----------------------------|
----------------------------|----------------------------|
--7-----7--11-9-------------|--7-----7--11-9-----7-------|
--x-----x--x--x-------------|--x-----x--x--x-----x-------|
--5-----5--9--7-------------|--5-----5--9--7-----5-------|
----------------------------|----------------------------|

----------------------------|----------------------------|
----------------------------|----------------------------|
--7-----7--11-9-------------|--7-----7--11-9-----7s------|
--x-----x--x--x-------------|--x-----x--x--x-----xs------|
--5-----5--9--7-------------|--5-----5--9--7-----5s------|
----------------------------|----------------------------|

Guitar 2
----------------------------|----------------------------|
----------------------------|----------------------------|
--7-----7--7--7-----7--7----|--7-----7--7--7-----7--7----|   x2
--7-----7--7--7-----7--7----|--7-----7--7--7-----7--7----|
--5-----5--5--x-----x--x----|--x-----x--x--x-----x--x----|
--------------5-----5--5----|--7-----7--7--5-----5--5----|


VERSE

Guitar 1
----------------------------------------------------|
----------------------------------------------------|
--7s----------------------------------x--x--x--x----|
--xs----------------------------------x--x--x--x----|
--5s----------------------------------x--x--x--x----|
----------------------------------------------------|

Guitar 2
----------------------------------------------------|
----------------------------------------------------|
--7s----------------------------------x--x--x--x----|
--7s----------------------------------x--x--x--x----|
--5s----------------------------------x--x--x--x----|
----------------------------------------------------|

Guitar 1
----------------------------|----------------------------|
----------------------------|----------------------------|
--7-----7--7--7-----7--7----|--7-----7--7--7-----7--7----|  
--7-----7--7--7-----7--7----|--7-----7--7--7-----7--7----|
--5-----5--5--x-----x--x----|--x-----x--x--x-----x--x----|
--------------5-----5--5----|--7-----7--7--5-----5--5----|


Guitar 1
----------------------------------------------------|
----------------------------------------------------|
--7s----------------------------------x--x--x--x----|
--xs----------------------------------x--x--x--x----|
--5s----------------------------------x--x--x--x----|
----------------------------------------------------|

Guitar 2
----------------------------------------------------|
----------------------------------------------------|
--7s----------------------------------x--x--x--x----|
--7s----------------------------------x--x--x--x----|
--5s----------------------------------x--x--x--x----|
----------------------------------------------------|

Guitar 1
----------------------------|----------------------------|
----------------------------|----------------------------|
--7-----7--7--7-----7--7----|--7-----7--7--7-----7--7----|  
--7-----7--7--7-----7--7----|--7-----7--7--7-----7--7----|
--5-----5--5--x-----x--x----|--x-----x--x--x-----x--x----|
--------------5-----5--5----|--7-----7--7--5-----5--5----|


PRE-CHORUS

Guitars 1 & 2
----------------------|
----------------------|
---7------------------|
---7---7---9---5------|
---5---7---9---5------|
-------5---7---3------|


CHORUS

Guitar 1   (Let Ring)
|--------------------14------------------------------|
|--15----------------------17-------15---------------|
|-----------14-------------------------------14------|
|----------------------------------------------------|
|----------------------------------------------------|
|----------------------------------------------------|

--------------------14----15-------14---------------|
--15----------------------------------------15------|
-----------14---------------------------------------|
----------------------------------------------------|
----------------------------------------------------|
----------------------------------------------------|

--------------------14------------------------------|
--15----------------------17-------15---------------|
-----------14-------------------------------14------|
----------------------------------------------------|
----------------------------------------------------|
----------------------------------------------------|

--------------------14----15-------14---------------|
--15----------------------------------------15------|
-----------14---------------------------------------|
----------------------------------------------------|
----------------------------------------------------|
----------------------------------------------------|

--------------------14------------------------------|
--15----------------------17-------15---------------|
-----------14-------------------------------14------|
----------------------------------------------------|
----------------------------------------------------|
----------------------------------------------------|

--------------------14----15-------14---------------|
--15----------------------------------------15------|
-----------14---------------------------------------|
----------------------------------------------------|
----------------------------------------------------|
----------------------------------------------------|

--------------------14------------------------------|
--15----------------------17-------15---------------|
-----------14-------------------------------14------|
----------------------------------------------------|
----------------------------------------------------|
----------------------------------------------------|

--14----------------------14------------------------|
-----------17-------15-------------17-------15------|
----------------------------------------------------|
----------------------------------------------------|
----------------------------------------------------|
----------------------------------------------------|

--------------------14------------------------------|
--15----------------------17s-----------------------|
-----------14---------------------------------------|
----------------------------------------------------|
----------------------------------------------------|
----------------------------------------------------|

Guitar 2
|----------------------------|
|----------------------------|
|--7--7--7--7----------------|
|--7--7--7--7--7--7--7--7----|
|--5--5--5--5--7--7--7--7----|
|--------------5--5--5--5----|

----------------------------|----------------------------|
----------------------------|----------------------------|
----------------------------|--7--7--7--7----------------|
--9--9--9--9--5--5--5--5----|--7--7--7--7--7--7--7--7----|
--9--9--9--9--5--5--5--5----|--5--5--5--5--7--7--7--7----|
--7--7--7--7--3--3--3--3----|--------------5--5--5--5----|

----------------------------|----------------------------|
----------------------------|----------------------------|
----------------------------|--7--7--7--7----------------|
--5--5--5--5--5--5--5--5----|--7--7--7--7--7--7--7--7----|
--5--5--5--5--5--5--5--5----|--5--5--5--5--7--7--7--7----|
--3--3--3--3--3--3--3--3----|--------------5--5--5--5----|

----------------------------|----------------------------|
----------------------------|----------------------------|
----------------------------|----------------------------|
--9--9--9--9--5--5--5--5----|--5--5--5--5--7--7--7--7----|
--9--9--9--9--5--5--5--5----|--5--5--5--5--7--7--7--7----|
--7--7--7--7--3--3--3--3----|--3--3--3--3--5--5--5--5----|

----------------------------|----------------------------|
----------------------------|----------------------------|
----------------------------|----------------------------|
--9--9--9--9--7--7--7--7----|--5--5--5--5--7s------------|
--9--9--9--9--7--7--7--7----|--5--5--5--5--7s------------|
--7--7--7--7--5--5--5--5----|--3--3--3--3--5s------------|


INTERLUDE
Guitar 1
----------------------------|----------------------------|
----------------------------|----------------------------|
--7-----7--11-9-------------|--7-----7--11-9-----7-------|
--x-----x--x--x-------------|--x-----x--x--x-----x-------|
--5-----5--9--7-------------|--5-----5--9--7-----5-------|
----------------------------|----------------------------|

----------------------------|----------------------------|
----------------------------|----------------------------|
--7-----7--11-9-------------|--7-----7--11-9-----7s------|
--x-----x--x--x-------------|--x-----x--x--x-----xs------|
--5-----5--9--7-------------|--5-----5--9--7-----5s------|
----------------------------|----------------------------|

Guitar 2
----------------------------|----------------------------|
----------------------------|----------------------------|
--7-----7--7--7-----7--7----|--7-----7--7--7-----7--7----|   x2
--7-----7--7--7-----7--7----|--7-----7--7--7-----7--7----|
--5-----5--5--x-----x--x----|--x-----x--x--x-----x--x----|
--------------5-----5--5----|--7-----7--7--5-----5--5----|


VERSE

PRE-CHORUS

CHORUS

INTERLUDE


BRIDGE

Guitars 1 & 2

|-------|-------|
|-------|-------|
|--7L---|--7----|
|--xL---|--x----|
|--5L---|--5----|
|-------|-------|

-------|-------|-------|-------|-------|-------|-------|-------|-------|-------|
-------|-------|-------|-------|-------|-------|-------|-------|-------|-------|
--7----|--6----|-------|-------|--7----|--6----|-------|-------|--7----|--6----|
--7----|--7----|--5----|--7----|--7----|--7----|--5----|--7----|--7----|--7----|
--5----|--4----|--5----|--7----|--5----|--4----|--5----|--7----|--5----|--4----|
-------|-------|--3----|--5----|-------|-------|--3----|--5----|-------|-------|

-------|-------|-------|-------|-------|----------------|
-------|-------|-------|-------|-------|----------------|
-------|-------|--7----|--6----|-------|----------------|
--5----|--7----|--7----|--7----|--5----|--7s------------|
--5----|--7----|--5----|--4----|--5----|--7s------------|
--3----|--5----|-------|-------|--3----|--5s------------|


CHORUS


OUTRO

(Play Interlude Twice)

End On:

--------------|
--------------|
---7s---------|
---7s---------|
---5s---------|
--------------|





Key:

s     Slide

x     Dead Note

L     Tied Note

            
            
Suggest correction
Creating personal tab
Creating personal tab
You can edit any tab online and save it as your Personal.

You can edit, replace or remove any tab part or add personal notes – all changes will be seen only by you.

Personal tabs can be accessed anytime from any device, even offline.
Learn more »
comments
print report bad tab
2 comments total.
0 reply
bRIGHTY273 10 Oct 20, 2011 04:36 AM

weres the interlude

0 reply
bRIGHTY273 10 Oct 20, 2011 04:37 AM

never mind didnt see it nice work

guest
You may want to rate the tab now too:
select rating
Wanna post a correction for this tab? Suggest correction